  0
SECTION
  2
HEADER
  9
$ACADVER
  1
AC1027
  9
$ACADMAINTVER
 70
   105
  9
$DWGCODEPAGE
  3
ANSI_1252
  9
$LASTSAVEDBY
  1
zvevqx
  9
$REQUIREDVERSIONS
160
                 0
  9
$INSBASE
 10
0.0
 20
0.0
 30
0.0
  9
$EXTMIN
 10
5.0
 20
4.999999999999886
 30
0.0
  9
$EXTMAX
 10
555.0
 20
275.0000000000001
 30
0.0
  9
$LIMMIN
 10
0.0
 20
0.0
  9
$LIMMAX
 10
12.0
 20
9.0
  9
$ORTHOMODE
 70
     0
  9
$REGENMODE
 70
     1
  9
$FILLMODE
 70
     1
  9
$QTEXTMODE
 70
     0
  9
$MIRRTEXT
 70
     0
  9
$LTSCALE
 40
1.0
  9
$ATTMODE
 70
     1
  9
$TEXTSIZE
 40
0.2
  9
$TRACEWID
 40
0.05
  9
$TEXTSTYLE
  7
Standard
  9
$CLAYER
  8
pocket
  9
$CELTYPE
  6
ByLayer
  9
$CECOLOR
 62
   256
  9
$CELTSCALE
 40
1.0
  9
$DISPSILH
 70
     0
  9
$DIMSCALE
 40
1.0
  9
$DIMASZ
 40
2.5
  9
$DIMEXO
 40
0.625
  9
$DIMDLI
 40
5.0
  9
$DIMRND
 40
0.0
  9
$DIMDLE
 40
0.0
  9
$DIMEXE
 40
1.25
  9
$DIMTP
 40
0.0
  9
$DIMTM
 40
0.0
  9
$DIMTXT
 40
2.5
  9
$DIMCEN
 40
0.09
  9
$DIMTSZ
 40
0.0
  9
$DIMTOL
 70
     0
  9
$DIMLIM
 70
     0
  9
$DIMTIH
 70
     1
  9
$DIMTOH
 70
     1
  9
$DIMSE1
 70
     0
  9
$DIMSE2
 70
     0
  9
$DIMTAD
 70
     0
  9
$DIMZIN
 70
     8
  9
$DIMBLK
  1

  9
$DIMASO
 70
     1
  9
$DIMSHO
 70
     1
  9
$DIMPOST
  1

  9
$DIMAPOST
  1

  9
$DIMALT
 70
     0
  9
$DIMALTD
 70
     2
  9
$DIMALTF
 40
25.4
  9
$DIMLFAC
 40
1.0
  9
$DIMTOFL
 70
     0
  9
$DIMTVP
 40
0.0
  9
$DIMTIX
 70
     0
  9
$DIMSOXD
 70
     0
  9
$DIMSAH
 70
     0
  9
$DIMBLK1
  1

  9
$DIMBLK2
  1

  9
$DIMSTYLE
  2
Standard
  9
$DIMCLRD
 70
     0
  9
$DIMCLRE
 70
     0
  9
$DIMCLRT
 70
     0
  9
$DIMTFAC
 40
1.0
  9
$DIMGAP
 40
0.625
  9
$DIMJUST
 70
     0
  9
$DIMSD1
 70
     0
  9
$DIMSD2
 70
     0
  9
$DIMTOLJ
 70
     1
  9
$DIMTZIN
 70
     0
  9
$DIMALTZ
 70
     0
  9
$DIMALTTZ
 70
     0
  9
$DIMUPT
 70
     0
  9
$DIMDEC
 70
     4
  9
$DIMTDEC
 70
     4
  9
$DIMALTU
 70
     2
  9
$DIMALTTD
 70
     2
  9
$DIMTXSTY
  7
Standard
  9
$DIMAUNIT
 70
     0
  9
$DIMADEC
 70
     0
  9
$DIMALTRND
 40
0.0
  9
$DIMAZIN
 70
     2
  9
$DIMDSEP
 70
    46
  9
$DIMATFIT
 70
     3
  9
$DIMFRAC
 70
     0
  9
$DIMLDRBLK
  1

  9
$DIMLUNIT
 70
     2
  9
$DIMLWD
 70
    -2
  9
$DIMLWE
 70
    -2
  9
$DIMTMOVE
 70
     0
  9
$DIMFXL
 40
1.0
  9
$DIMFXLON
 70
     0
  9
$DIMJOGANG
 40
0.7853981633974483
  9
$DIMTFILL
 70
     0
  9
$DIMTFILLCLR
 70
     0
  9
$DIMARCSYM
 70
     0
  9
$DIMLTYPE
  6

  9
$DIMLTEX1
  6

  9
$DIMLTEX2
  6

  9
$DIMTXTDIRECTION
 70
     0
  9
$LUNITS
 70
     2
  9
$LUPREC
 70
     4
  9
$SKETCHINC
 40
0.1
  9
$FILLETRAD
 40
0.5
  9
$AUNITS
 70
     0
  9
$AUPREC
 70
     0
  9
$MENU
  1
.
  9
$ELEVATION
 40
0.0
  9
$PELEVATION
 40
0.0
  9
$THICKNESS
 40
0.0
  9
$LIMCHECK
 70
     0
  9
$CHAMFERA
 40
0.0
  9
$CHAMFERB
 40
0.0
  9
$CHAMFERC
 40
0.0
  9
$CHAMFERD
 40
0.0
  9
$SKPOLY
 70
     0
  9
$TDCREATE
 40
2459999.410473113
  9
$TDUCREATE
 40
2459999.368806447
  9
$TDUPDATE
 40
2459999.410473287
  9
$TDUUPDATE
 40
2459999.368806621
  9
$TDINDWG
 40
0.0000000116
  9
$TDUSRTIMER
 40
0.0000000116
  9
$USRTIMER
 70
     1
  9
$ANGBASE
 50
0.0
  9
$ANGDIR
 70
     0
  9
$PDMODE
 70
     0
  9
$PDSIZE
 40
0.0
  9
$PLINEWID
 40
0.0
  9
$SPLFRAME
 70
     0
  9
$SPLINETYPE
 70
     6
  9
$SPLINESEGS
 70
     8
  9
$HANDSEED
  5
1703
  9
$SURFTAB1
 70
     6
  9
$SURFTAB2
 70
     6
  9
$SURFTYPE
 70
     6
  9
$SURFU
 70
     6
  9
$SURFV
 70
     6
  9
$UCSBASE
  2

  9
$UCSNAME
  2

  9
$UCSORG
 10
0.0
 20
0.0
 30
0.0
  9
$UCSXDIR
 10
1.0
 20
0.0
 30
0.0
  9
$UCSYDIR
 10
0.0
 20
1.0
 30
0.0
  9
$UCSORTHOREF
  2

  9
$UCSORTHOVIEW
 70
     0
  9
$UCSORGTOP
 10
0.0
 20
0.0
 30
0.0
  9
$UCSORGBOTTOM
 10
0.0
 20
0.0
 30
0.0
  9
$UCSORGLEFT
 10
0.0
 20
0.0
 30
0.0
  9
$UCSORGRIGHT
 10
0.0
 20
0.0
 30
0.0
  9
$UCSORGFRONT
 10
0.0
 20
0.0
 30
0.0
  9
$UCSORGBACK
 10
0.0
 20
0.0
 30
0.0
  9
$PUCSBASE
  2

  9
$PUCSNAME
  2

  9
$PUCSORG
 10
0.0
 20
0.0
 30
0.0
  9
$PUCSXDIR
 10
1.0
 20
0.0
 30
0.0
  9
$PUCSYDIR
 10
0.0
 20
1.0
 30
0.0
  9
$PUCSORTHOREF
  2

  9
$PUCSORTHOVIEW
 70
     0
  9
$PUCSORGTOP
 10
0.0
 20
0.0
 30
0.0
  9
$PUCSORGBOTTOM
 10
0.0
 20
0.0
 30
0.0
  9
$PUCSORGLEFT
 10
0.0
 20
0.0
 30
0.0
  9
$PUCSORGRIGHT
 10
0.0
 20
0.0
 30
0.0
  9
$PUCSORGFRONT
 10
0.0
 20
0.0
 30
0.0
  9
$PUCSORGBACK
 10
0.0
 20
0.0
 30
0.0
  9
$USERI1
 70
     0
  9
$USERI2
 70
     0
  9
$USERI3
 70
     0
  9
$USERI4
 70
     0
  9
$USERI5
 70
     0
  9
$USERR1
 40
0.0
  9
$USERR2
 40
0.0
  9
$USERR3
 40
0.0
  9
$USERR4
 40
0.0
  9
$USERR5
 40
0.0
  9
$WORLDVIEW
 70
     1
  9
$SHADEDGE
 70
     3
  9
$SHADEDIF
 70
    70
  9
$TILEMODE
 70
     1
  9
$MAXACTVP
 70
    64
  9
$PINSBASE
 10
0.0
 20
0.0
 30
0.0
  9
$PLIMCHECK
 70
     0
  9
$PEXTMIN
 10
0.0
 20
0.0
 30
0.0
  9
$PEXTMAX
 10
0.0
 20
0.0
 30
0.0
  9
$PLIMMIN
 10
-20.0
 20
-7.5
  9
$PLIMMAX
 10
277.0
 20
202.5
  9
$UNITMODE
 70
     0
  9
$VISRETAIN
 70
     1
  9
$PLINEGEN
 70
     0
  9
$PSLTSCALE
 70
     1
  9
$TREEDEPTH
 70
  3020
  9
$CMLSTYLE
  2
Standard
  9
$CMLJUST
 70
     0
  9
$CMLSCALE
 40
1.0
  9
$PROXYGRAPHICS
 70
     1
  9
$MEASUREMENT
 70
     1
  9
$CELWEIGHT
370
    -1
  9
$ENDCAPS
280
     0
  9
$JOINSTYLE
280
     0
  9
$LWDISPLAY
290
     0
  9
$INSUNITS
 70
     4
  9
$HYPERLINKBASE
  1

  9
$STYLESHEET
  1

  9
$XEDIT
290
     1
  9
$CEPSNTYPE
380
     0
  9
$PSTYLEMODE
290
     1
  9
$FINGERPRINTGUID
  2
{71b83832-3734-6173-7661-637134756636}
  9
$VERSIONGUID
  2
{FAEB1C32-E019-11D5-929B-00C0DF256EC4}
  9
$EXTNAMES
290
     1
  9
$PSVPSCALE
 40
0.0
  9
$OLESTARTUP
290
     0
  9
$SORTENTS
280
   127
  9
$INDEXCTL
280
     0
  9
$HIDETEXT
280
     1
  9
$XCLIPFRAME
280
     2
  9
$HALOGAP
280
     0
  9
$OBSCOLOR
 70
   257
  9
$OBSLTYPE
280
     0
  9
$INTERSECTIONDISPLAY
280
     0
  9
$INTERSECTIONCOLOR
 70
   257
  9
$DIMASSOC
280
     2
  9
$PROJECTNAME
  1

  9
$CAMERADISPLAY
290
     0
  9
$LENSLENGTH
 40
50.0
  9
$CAMERAHEIGHT
 40
0.0
  9
$STEPSPERSEC
 40
2.0
  9
$STEPSIZE
 40
6.0
  9
$3DDWFPREC
 40
2.0
  9
$PSOLWIDTH
 40
0.25
  9
$PSOLHEIGHT
 40
4.0
  9
$LOFTANG1
 40
1.570796326794897
  9
$LOFTANG2
 40
1.570796326794897
  9
$LOFTMAG1
 40
0.0
  9
$LOFTMAG2
 40
0.0
  9
$LOFTPARAM
 70
     7
  9
$LOFTNORMALS
280
     1
  9
$LATITUDE
 40
37.795
  9
$LONGITUDE
 40
-122.394
  9
$NORTHDIRECTION
 40
0.0
  9
$TIMEZONE
 70
 -8000
  9
$LIGHTGLYPHDISPLAY
280
     1
  9
$TILEMODELIGHTSYNCH
280
     1
  9
$CMATERIAL
347
163F
  9
$SOLIDHIST
280
     0
  9
$SHOWHIST
280
     1
  9
$DWFFRAME
280
     2
  9
$DGNFRAME
280
     2
  9
$REALWORLDSCALE
290
     1
  9
$INTERFERECOLOR
 62
   256
  9
$CSHADOW
280
     0
  9
$SHADOWPLANELOCATION
 40
0.0
  0
ENDSEC
  0
SECTION
  2
CLASSES
  0
CLASS
  1
ACDBDICTIONARYWDFLT
  2
AcDbDictionaryWithDefault
  3
ObjectDBX Classes
 90
        0
 91
        3
280
     0
281
     0
  0
CLASS
  1
VISUALSTYLE
  2
AcDbVisualStyle
  3
ObjectDBX Classes
 90
     4095
 91
        3
280
     0
281
     0
  0
CLASS
  1
MATERIAL
  2
AcDbMaterial
  3
ObjectDBX Classes
 90
     1153
 91
        3
280
     0
281
     0
  0
CLASS
  1
SCALE
  2
AcDbScale
  3
ObjectDBX Classes
 90
     1153
 91
        3
280
     0
281
     0
  0
CLASS
  1
TABLESTYLE
  2
AcDbTableStyle
  3
ObjectDBX Classes
 90
     4095
 91
        3
280
     0
281
     0
  0
CLASS
  1
MLEADERSTYLE
  2
AcDbMLeaderStyle
  3
ACDB_MLEADERSTYLE_CLASS
 90
     4095
 91
        3
280
     0
281
     0
  0
CLASS
  1
SUN
  2
AcDbSun
  3
SCENEOE
 90
     1153
 91
        3
280
     0
281
     0
  0
CLASS
  1
DICTIONARYVAR
  2
AcDbDictionaryVar
  3
ObjectDBX Classes
 90
        0
 91
        3
280
     0
281
     0
  0
CLASS
  1
CELLSTYLEMAP
  2
AcDbCellStyleMap
  3
ObjectDBX Classes
 90
     1152
 91
        3
280
     0
281
     0
  0
ENDSEC
  0
SECTION
  2
TABLES
  0
TABLE
  2
VPORT
  5
1604
330
0
100
AcDbSymbolTable
 70
     1
  0
VPORT
  5
1624
330
1604
100
AcDbSymbolTableRecord
100
AcDbViewportTableRecord
  2
*Active
 70
     0
 10
0.0
 20
0.0
 11
1.0
 21
1.0
 12
963.4950446006899
 22
126.3384585922739
 13
0.0
 23
0.0
 14
0.5
 24
0.5
 15
0.5
 25
0.5
 16
0.0
 26
0.0
 36
1.0
 17
0.0
 27
0.0
 37
0.0
 40
1816.666997108909
 41
2.187227866473149
 42
50.0
 43
0.0
 44
0.0
 50
0.0
 51
0.0
 71
     0
 72
   100
 73
     1
 74
     3
 75
     0
 76
     0
 77
     0
 78
     0
281
     0
 65
     1
110
0.0
120
0.0
130
0.0
111
1.0
121
0.0
131
0.0
112
0.0
122
1.0
132
0.0
 79
     0
146
0.0
348
162A
 60
     3
 61
     5
292
     1
282
     1
141
0.0
142
0.0
 63
   250
361
1668
  0
ENDTAB
  0
TABLE
  2
LTYPE
  5
1601
330
0
100
AcDbSymbolTable
 70
    52
  0
LTYPE
  5
160F
330
1601
100
AcDbSymbolTableRecord
100
AcDbLinetypeTableRecord
  2
ByBlock
 70
     0
  3

 72
    65
 73
     0
 40
0.0
  0
LTYPE
  5
1610
330
1601
100
AcDbSymbolTableRecord
100
AcDbLinetypeTableRecord
  2
ByLayer
 70
     0
  3

 72
    65
 73
     0
 40
0.0
  0
LTYPE
  5
1611
330
1601
100
AcDbSymbolTableRecord
100
AcDbLinetypeTableRecord
  2
Continuous
 70
     0
  3
Solid line
 72
    65
 73
     0
 40
0.0
  0
LTYPE
  5
16A5
330
1601
100
AcDbSymbolTableRecord
100
AcDbLinetypeTableRecord
  2
TRACKS
 70
     0
  3
Tracks -|-|-|-|-|-|-|-|-|-|-|-|-|-|-|-|-|-|-|-|-|-|-|-|-
 72
    65
 73
     2
 40
7.62
 49
3.81
 74
     2
 75
     0
340
16A4
 46
6.35
 50
0.0
 44
0.0
 45
0.0
  9
TRACK1
 49
3.81
 74
     0
  0
LTYPE
  5
16A6
330
1601
100
AcDbSymbolTableRecord
100
AcDbLinetypeTableRecord
  2
ACAD_ISO04W100
 70
     0
  3
ISO long-dash dot ____ . ____ . ____ . ____ . _
 72
    65
 73
     4
 40
30.0
 49
24.0
 74
     0
 49
-3.0
 74
     0
 49
0.0
 74
     0
 49
-3.0
 74
     0
  0
LTYPE
  5
16A7
330
1601
100
AcDbSymbolTableRecord
100
AcDbLinetypeTableRecord
  2
ACAD_ISO05W100
 70
     0
  3
ISO long-dash double-dot ____ .. ____ .. ____ . 
 72
    65
 73
     6
 40
33.0
 49
24.0
 74
     0
 49
-3.0
 74
     0
 49
0.0
 74
     0
 49
-3.0
 74
     0
 49
0.0
 74
     0
 49
-3.0
 74
     0
  0
LTYPE
  5
16A8
330
1601
100
AcDbSymbolTableRecord
100
AcDbLinetypeTableRecord
  2
ACAD_ISO02W100
 70
     0
  3
ISO dash __ __ __ __ __ __ __ __ __ __ __ __ __
 72
    65
 73
     2
 40
15.0
 49
12.0
 74
     0
 49
-3.0
 74
     0
  0
LTYPE
  5
16A9
330
1601
100
AcDbSymbolTableRecord
100
AcDbLinetypeTableRecord
  2
ACAD_ISO03W100
 70
     0
  3
ISO dash space __    __    __    __    __    __
 72
    65
 73
     2
 40
30.0
 49
12.0
 74
     0
 49
-18.0
 74
     0
  0
LTYPE
  5
16AA
330
1601
100
AcDbSymbolTableRecord
100
AcDbLinetypeTableRecord
  2
ACAD_ISO08W100
 70
     0
  3
ISO long-dash short-dash ____ __ ____ __ ____ _
 72
    65
 73
     4
 40
36.0
 49
24.0
 74
     0
 49
-3.0
 74
     0
 49
6.0
 74
     0
 49
-3.0
 74
     0
  0
LTYPE
  5
16AB
330
1601
100
AcDbSymbolTableRecord
100
AcDbLinetypeTableRecord
  2
ACAD_ISO09W100
 70
     0
  3
ISO long-dash double-short-dash ____ __ __ ____
 72
    65
 73
     6
 40
45.0
 49
24.0
 74
     0
 49
-3.0
 74
     0
 49
6.0
 74
     0
 49
-3.0
 74
     0
 49
6.0
 74
     0
 49
-3.0
 74
     0
  0
LTYPE
  5
16AC
330
1601
100
AcDbSymbolTableRecord
100
AcDbLinetypeTableRecord
  2
ACAD_ISO06W100
 70
     0
  3
ISO long-dash triple-dot ____ ... ____ ... ____
 72
    65
 73
     8
 40
36.0
 49
24.0
 74
     0
 49
-3.0
 74
     0
 49
0.0
 74
     0
 49
-3.0
 74
     0
 49
0.0
 74
     0
 49
-3.0
 74
     0
 49
0.0
 74
     0
 49
-3.0
 74
     0
  0
LTYPE
  5
16AD
330
1601
100
AcDbSymbolTableRecord
100
AcDbLinetypeTableRecord
  2
ACAD_ISO07W100
 70
     0
  3
ISO dot . . . . . . . . . . . . . . . . . . . . 
 72
    65
 73
     2
 40
3.0
 49
0.0
 74
     0
 49
-3.0
 74
     0
  0
LTYPE
  5
16AE
330
1601
100
AcDbSymbolTableRecord
100
AcDbLinetypeTableRecord
  2
ACAD_ISO12W100
 70
     0
  3
ISO dash double-dot __ . . __ . . __ . . __ . . 
 72
    65
 73
     6
 40
21.0
 49
12.0
 74
     0
 49
-3.0
 74
     0
 49
0.0
 74
     0
 49
-3.0
 74
     0
 49
0.0
 74
     0
 49
-3.0
 74
     0
  0
LTYPE
  5
16AF
330
1601
100
AcDbSymbolTableRecord
100
AcDbLinetypeTableRecord
  2
ACAD_ISO13W100
 70
     0
  3
ISO double-dash double-dot __ __ . . __ __ . . _
 72
    65
 73
     8
 40
36.0
 49
12.0
 74
     0
 49
-3.0
 74
     0
 49
12.0
 74
     0
 49
-3.0
 74
     0
 49
0.0
 74
     0
 49
-3.0
 74
     0
 49
0.0
 74
     0
 49
-3.0
 74
     0
  0
LTYPE
  5
16B0
330
1601
100
AcDbSymbolTableRecord
100
AcDbLinetypeTableRecord
  2
ACAD_ISO10W100
 70
     0
  3
ISO dash dot __ . __ . __ . __ . __ . __ . __ . 
 72
    65
 73
     4
 40
18.0
 49
12.0
 74
     0
 49
-3.0
 74
     0
 49
0.0
 74
     0
 49
-3.0
 74
     0
  0
LTYPE
  5
16B1
330
1601
100
AcDbSymbolTableRecord
100
AcDbLinetypeTableRecord
  2
ACAD_ISO11W100
 70
     0
  3
ISO double-dash dot __ __ . __ __ . __ __ . __ _
 72
    65
 73
     6
 40
33.0
 49
12.0
 74
     0
 49
-3.0
 74
     0
 49
12.0
 74
     0
 49
-3.0
 74
     0
 49
0.0
 74
     0
 49
-3.0
 74
     0
  0
LTYPE
  5
16B4
330
1601
100
AcDbSymbolTableRecord
100
AcDbLinetypeTableRecord
  2
BATTING
 70
     0
  3
Batting SSSSSSSSSSSSSSSSSSSSSSSSSSSSSSSSSSSSSSSSSSSSSSS
 72
    65
 73
     4
 40
10.16254
 49
0.00254
 74
     0
 49
-2.54
 74
     2
 75
     0
340
16B2
 46
2.54
 50
0.0
 44
-2.54
 45
0.0
  9
BAT
 49
-5.08
 74
     2
 75
     0
340
16B3
 46
2.54
 50
180.0
 44
2.54
 45
0.0
  9
BAT
 49
-2.54
 74
     0
  0
LTYPE
  5
16B5
330
1601
100
AcDbSymbolTableRecord
100
AcDbLinetypeTableRecord
  2
BORDER
 70
     0
  3
Border __ __ . __ __ . __ __ . __ __ . __ __ .
 72
    65
 73
     6
 40
44.45
 49
12.7
 74
     0
 49
-6.35
 74
     0
 49
12.7
 74
     0
 49
-6.35
 74
     0
 49
0.0
 74
     0
 49
-6.35
 74
     0
  0
LTYPE
  5
16B6
330
1601
100
AcDbSymbolTableRecord
100
AcDbLinetypeTableRecord
  2
ACAD_ISO14W100
 70
     0
  3
ISO dash triple-dot __ . . . __ . . . __ . . . _
 72
    65
 73
     8
 40
24.0
 49
12.0
 74
     0
 49
-3.0
 74
     0
 49
0.0
 74
     0
 49
-3.0
 74
     0
 49
0.0
 74
     0
 49
-3.0
 74
     0
 49
0.0
 74
     0
 49
-3.0
 74
     0
  0
LTYPE
  5
16B7
330
1601
100
AcDbSymbolTableRecord
100
AcDbLinetypeTableRecord
  2
ACAD_ISO15W100
 70
     0
  3
ISO double-dash triple-dot __ __ . . . __ __ . .
 72
    65
 73
    10
 40
39.0
 49
12.0
 74
     0
 49
-3.0
 74
     0
 49
12.0
 74
     0
 49
-3.0
 74
     0
 49
0.0
 74
     0
 49
-3.0
 74
     0
 49
0.0
 74
     0
 49
-3.0
 74
     0
 49
0.0
 74
     0
 49
-3.0
 74
     0
  0
LTYPE
  5
16B8
330
1601
100
AcDbSymbolTableRecord
100
AcDbLinetypeTableRecord
  2
CENTER
 70
     0
  3
Center ____ _ ____ _ ____ _ ____ _ ____ _ ____
 72
    65
 73
     4
 40
50.8
 49
31.75
 74
     0
 49
-6.35
 74
     0
 49
6.35
 74
     0
 49
-6.35
 74
     0
  0
LTYPE
  5
16B9
330
1601
100
AcDbSymbolTableRecord
100
AcDbLinetypeTableRecord
  2
CENTER2
 70
     0
  3
Center (.5x) ___ _ ___ _ ___ _ ___ _ ___ _ ___
 72
    65
 73
     4
 40
28.575
 49
19.05
 74
     0
 49
-3.175
 74
     0
 49
3.175
 74
     0
 49
-3.175
 74
     0
  0
LTYPE
  5
16BA
330
1601
100
AcDbSymbolTableRecord
100
AcDbLinetypeTableRecord
  2
BORDER2
 70
     0
  3
Border (.5x) __.__.__.__.__.__.__.__.__.__.__.
 72
    65
 73
     6
 40
22.225
 49
6.35
 74
     0
 49
-3.175
 74
     0
 49
6.35
 74
     0
 49
-3.175
 74
     0
 49
0.0
 74
     0
 49
-3.175
 74
     0
  0
LTYPE
  5
16BB
330
1601
100
AcDbSymbolTableRecord
100
AcDbLinetypeTableRecord
  2
BORDERX2
 70
     0
  3
Border (2x) ____  ____  .  ____  ____  .  ___
 72
    65
 73
     6
 40
88.89999999999999
 49
25.4
 74
     0
 49
-12.7
 74
     0
 49
25.4
 74
     0
 49
-12.7
 74
     0
 49
0.0
 74
     0
 49
-12.7
 74
     0
  0
LTYPE
  5
16BD
330
1601
100
AcDbSymbolTableRecord
100
AcDbLinetypeTableRecord
  2
CUTLEFT2
 70
     0
  3
G41 reversed----/----/----/----
 72
    65
 73
     2
 40
10.16
 49
5.08
 74
     2
 75
     0
340
16BC
 46
2.54
 50
0.0
 44
0.0
 45
0.0
  9
LRIGHT_ARROW
 49
5.08
 74
     0
  0
LTYPE
  5
16BF
330
1601
100
AcDbSymbolTableRecord
100
AcDbLinetypeTableRecord
  2
CUTRIGHT
 70
     0
  3
G42 ----/----/-----/---
 72
    65
 73
     2
 40
10.16
 49
5.08
 74
     2
 75
     0
340
16BE
 46
2.54
 50
180.0
 44
0.0
 45
0.0
  9
HRIGHT_ARROW
 49
5.08
 74
     0
  0
LTYPE
  5
16C0
330
1601
100
AcDbSymbolTableRecord
100
AcDbLinetypeTableRecord
  2
CENTERX2
 70
     0
  3
Center (2x) ________  __  ________  __  _____
 72
    65
 73
     4
 40
101.6
 49
63.5
 74
     0
 49
-12.7
 74
     0
 49
12.7
 74
     0
 49
-12.7
 74
     0
  0
LTYPE
  5
16C2
330
1601
100
AcDbSymbolTableRecord
100
AcDbLinetypeTableRecord
  2
CUTLEFT
 70
     0
  3
G41 ----\----\----\----
 72
    65
 73
     2
 40
10.16
 49
5.08
 74
     2
 75
     0
340
16C1
 46
2.54
 50
180.0
 44
0.0
 45
0.0
  9
LRIGHT_ARROW
 49
5.08
 74
     0
  0
LTYPE
  5
16C3
330
1601
100
AcDbSymbolTableRecord
100
AcDbLinetypeTableRecord
  2
DASHDOT2
 70
     0
  3
Dash dot (.5x) _._._._._._._._._._._._._._._.
 72
    65
 73
     4
 40
12.7
 49
6.35
 74
     0
 49
-3.175
 74
     0
 49
0.0
 74
     0
 49
-3.175
 74
     0
  0
LTYPE
  5
16C4
330
1601
100
AcDbSymbolTableRecord
100
AcDbLinetypeTableRecord
  2
DASHDOTX2
 70
     0
  3
Dash dot (2x) ____  .  ____  .  ____  .  ___
 72
    65
 73
     4
 40
50.8
 49
25.4
 74
     0
 49
-12.7
 74
     0
 49
0.0
 74
     0
 49
-12.7
 74
     0
  0
LTYPE
  5
16C6
330
1601
100
AcDbSymbolTableRecord
100
AcDbLinetypeTableRecord
  2
CUTRIGHT2
 70
     0
  3
G42 reversed----\----\----\----
 72
    65
 73
     2
 40
10.16
 49
5.08
 74
     2
 75
     0
340
16C5
 46
2.54
 50
0.0
 44
0.0
 45
0.0
  9
HRIGHT_ARROW
 49
5.08
 74
     0
  0
LTYPE
  5
16C7
330
1601
100
AcDbSymbolTableRecord
100
AcDbLinetypeTableRecord
  2
DASHDOT
 70
     0
  3
Dash dot __ . __ . __ . __ . __ . __ . __ . __
 72
    65
 73
     4
 40
25.4
 49
12.7
 74
     0
 49
-6.35
 74
     0
 49
0.0
 74
     0
 49
-6.35
 74
     0
  0
LTYPE
  5
16C8
330
1601
100
AcDbSymbolTableRecord
100
AcDbLinetypeTableRecord
  2
DASHEDX2
 70
     0
  3
Dashed (2x) ____  ____  ____  ____  ____  ___
 72
    65
 73
     2
 40
38.09999999999999
 49
25.4
 74
     0
 49
-12.7
 74
     0
  0
LTYPE
  5
16C9
330
1601
100
AcDbSymbolTableRecord
100
AcDbLinetypeTableRecord
  2
DIVIDE
 70
     0
  3
Divide ____ . . ____ . . ____ . . ____ . . ____
 72
    65
 73
     6
 40
31.75
 49
12.7
 74
     0
 49
-6.35
 74
     0
 49
0.0
 74
     0
 49
-6.35
 74
     0
 49
0.0
 74
     0
 49
-6.35
 74
     0
  0
LTYPE
  5
16CA
330
1601
100
AcDbSymbolTableRecord
100
AcDbLinetypeTableRecord
  2
DASHED
 70
     0
  3
Dashed __ __ __ __ __ __ __ __ __ __ __ __ __ _
 72
    65
 73
     2
 40
19.05
 49
12.7
 74
     0
 49
-6.35
 74
     0
  0
LTYPE
  5
16CB
330
1601
100
AcDbSymbolTableRecord
100
AcDbLinetypeTableRecord
  2
DASHED2
 70
     0
  3
Dashed (.5x) _ _ _ _ _ _ _ _ _ _ _ _ _ _ _ _ _ 
 72
    65
 73
     2
 40
9.524999999999999
 49
6.35
 74
     0
 49
-3.175
 74
     0
  0
LTYPE
  5
16CC
330
1601
100
AcDbSymbolTableRecord
100
AcDbLinetypeTableRecord
  2
DOT
 70
     0
  3
Dot . . . . . . . . . . . . . . . . . . . . . . . .
 72
    65
 73
     2
 40
6.35
 49
0.0
 74
     0
 49
-6.35
 74
     0
  0
LTYPE
  5
16CD
330
1601
100
AcDbSymbolTableRecord
100
AcDbLinetypeTableRecord
  2
DOT2
 70
     0
  3
Dot (.5x) ........................................
 72
    65
 73
     2
 40
3.175
 49
0.0
 74
     0
 49
-3.175
 74
     0
  0
LTYPE
  5
16CE
330
1601
100
AcDbSymbolTableRecord
100
AcDbLinetypeTableRecord
  2
DIVIDE2
 70
     0
  3
Divide (.5x) __..__..__..__..__..__..__..__.._
 72
    65
 73
     6
 40
15.875
 49
6.35
 74
     0
 49
-3.175
 74
     0
 49
0.0
 74
     0
 49
-3.175
 74
     0
 49
0.0
 74
     0
 49
-3.175
 74
     0
  0
LTYPE
  5
16CF
330
1601
100
AcDbSymbolTableRecord
100
AcDbLinetypeTableRecord
  2
DIVIDEX2
 70
     0
  3
Divide (2x) ________  .  .  ________  .  .  _
 72
    65
 73
     6
 40
63.5
 49
25.4
 74
     0
 49
-12.7
 74
     0
 49
0.0
 74
     0
 49
-12.7
 74
     0
 49
0.0
 74
     0
 49
-12.7
 74
     0
  0
LTYPE
  5
16D1
330
1601
100
AcDbSymbolTableRecord
100
AcDbLinetypeTableRecord
  2
DRAINAGE2
 70
     0
  3
Drainage reversed----<----<----<----
 72
    65
 73
     2
 40
10.16
 49
5.08
 74
     2
 75
     0
340
16D0
 46
2.54
 50
0.0
 44
0.0
 45
0.0
  9
RIGHT_ARROW
 49
5.08
 74
     0
  0
LTYPE
  5
16D3
330
1601
100
AcDbSymbolTableRecord
100
AcDbLinetypeTableRecord
  2
FENCELINE1
 70
     0
  3
Fenceline circle ----0-----0----0-----0----0-----0--
 72
    65
 73
     4
 40
36.83
 49
6.35
 74
     0
 49
-2.54
 74
     2
 75
     0
340
16D2
 46
2.54
 50
0.0
 44
-2.54
 45
0.0
  9
CIRC1
 49
-2.54
 74
     0
 49
25.4
 74
     0
  0
LTYPE
  5
16D4
330
1601
100
AcDbSymbolTableRecord
100
AcDbLinetypeTableRecord
  2
DOTX2
 70
     0
  3
Dot (2x) .  .  .  .  .  .  .  .  .  .  .  .  .  .
 72
    65
 73
     2
 40
12.7
 49
0.0
 74
     0
 49
-12.7
 74
     0
  0
LTYPE
  5
16D6
330
1601
100
AcDbSymbolTableRecord
100
AcDbLinetypeTableRecord
  2
DRAINAGE
 70
     0
  3
Drainage ---->---->---->----
 72
    65
 73
     2
 40
10.16
 49
5.08
 74
     2
 75
     0
340
16D5
 46
2.54
 50
180.0
 44
0.0
 45
0.0
  9
RIGHT_ARROW
 49
5.08
 74
     0
  0
LTYPE
  5
16D7
330
1601
100
AcDbSymbolTableRecord
100
AcDbLinetypeTableRecord
  2
HIDDEN
 70
     0
  3
Hidden __ __ __ __ __ __ __ __ __ __ __ __ __ __
 72
    65
 73
     2
 40
9.524999999999999
 49
6.35
 74
     0
 49
-3.175
 74
     0
  0
LTYPE
  5
16D8
330
1601
100
AcDbSymbolTableRecord
100
AcDbLinetypeTableRecord
  2
HIDDEN2
 70
     0
  3
Hidden (.5x) _ _ _ _ _ _ _ _ _ _ _ _ _ _ _ _ _ 
 72
    65
 73
     2
 40
4.762499999999999
 49
3.175
 74
     0
 49
-1.5875
 74
     0
  0
LTYPE
  5
16DA
330
1601
100
AcDbSymbolTableRecord
100
AcDbLinetypeTableRecord
  2
FENCELINE2
 70
     0
  3
Fenceline square ----[]-----[]----[]-----[]----[]---
 72
    65
 73
     4
 40
36.83
 49
6.35
 74
     0
 49
-2.54
 74
     2
 75
     0
340
16D9
 46
2.54
 50
0.0
 44
-2.54
 45
0.0
  9
BOX
 49
-2.54
 74
     0
 49
25.4
 74
     0
  0
LTYPE
  5
16DC
330
1601
100
AcDbSymbolTableRecord
100
AcDbLinetypeTableRecord
  2
GAS_LINE
 70
     0
  3
Gas line ----GAS----GAS----GAS----GAS----GAS----GAS--
 72
    65
 73
     3
 40
24.13
 49
12.7
 74
     0
 49
-5.08
 74
     2
 75
     0
340
16DB
 46
2.54
 50
0.0
 44
-2.54
 45
-1.27
  9
GAS
 49
-6.35
 74
     0
  0
LTYPE
  5
16DD
330
1601
100
AcDbSymbolTableRecord
100
AcDbLinetypeTableRecord
  2
PHANTOM
 70
     0
  3
Phantom ______  __  __  ______  __  __  ______ 
 72
    65
 73
     6
 40
63.50000000000001
 49
31.75
 74
     0
 49
-6.35
 74
     0
 49
6.35
 74
     0
 49
-6.35
 74
     0
 49
6.35
 74
     0
 49
-6.35
 74
     0
  0
LTYPE
  5
16DE
330
1601
100
AcDbSymbolTableRecord
100
AcDbLinetypeTableRecord
  2
PHANTOM2
 70
     0
  3
Phantom (.5x) ___ _ _ ___ _ _ ___ _ _ ___ _ _
 72
    65
 73
     6
 40
31.75
 49
15.875
 74
     0
 49
-3.175
 74
     0
 49
3.175
 74
     0
 49
-3.175
 74
     0
 49
3.175
 74
     0
 49
-3.175
 74
     0
  0
LTYPE
  5
16DF
330
1601
100
AcDbSymbolTableRecord
100
AcDbLinetypeTableRecord
  2
HIDDENX2
 70
     0
  3
Hidden (2x) ____ ____ ____ ____ ____ ____ ____ 
 72
    65
 73
     2
 40
19.05
 49
12.7
 74
     0
 49
-6.35
 74
     0
  0
LTYPE
  5
16E1
330
1601
100
AcDbSymbolTableRecord
100
AcDbLinetypeTableRecord
  2
HOT_WATER_SUPPLY
 70
     0
  3
Hot water supply ---- HW ---- HW ---- HW ----
 72
    65
 73
     3
 40
22.86
 49
12.7
 74
     0
 49
-5.08
 74
     2
 75
     0
340
16E0
 46
2.54
 50
0.0
 44
-2.54
 45
-1.27
  9
HW
 49
-5.08
 74
     0
  0
LTYPE
  5
16E4
330
1601
100
AcDbSymbolTableRecord
100
AcDbLinetypeTableRecord
  2
ZIGZAG
 70
     0
  3
Zig zag /\/\/\/\/\/\/\/\/\/\/\/\/\/\/\/\/\/\/\/\/\/\/\/
 72
    65
 73
     4
 40
20.32254
 49
0.00254
 74
     0
 49
-5.08
 74
     2
 75
     0
340
16E2
 46
5.08
 50
0.0
 44
-5.08
 45
0.0
  9
ZIG
 49
-10.16
 74
     2
 75
     0
340
16E3
 46
5.08
 50
180.0
 44
5.08
 45
0.0
  9
ZIG
 49
-5.08
 74
     0
  0
LTYPE
  5
16E5
330
1601
100
AcDbSymbolTableRecord
100
AcDbLinetypeTableRecord
  2
PHANTOMX2
 70
     0
  3
Phantom (2x) ____________    ____    ____   _
 72
    65
 73
     6
 40
127.0
 49
63.5
 74
     0
 49
-12.7
 74
     0
 49
12.7
 74
     0
 49
-12.7
 74
     0
 49
12.7
 74
     0
 49
-12.7
 74
     0
  0
ENDTAB
  0
TABLE
  2
LAYER
  5
15FF
330
0
100
AcDbSymbolTable
 70
     7
  0
LAYER
  5
160C
330
15FF
100
AcDbSymbolTableRecord
100
AcDbLayerTableRecord
  2
0
 70
     0
 62
     7
  6
Continuous
370
    25
390
160B
347
1641
348
0
  0
LAYER
  5
16E6
330
15FF
100
AcDbSymbolTableRecord
100
AcDbLayerTableRecord
  2
drill
 70
     0
 62
     2
420
 16776960
  6
Continuous
370
    25
390
160B
347
1641
348
0
  0
LAYER
  5
16E7
330
15FF
100
AcDbSymbolTableRecord
100
AcDbLayerTableRecord
  2
engrave
 70
     0
 62
    96
420
    32768
  6
Continuous
370
    25
390
160B
347
1641
348
0
  0
LAYER
  5
16E8
330
15FF
100
AcDbSymbolTableRecord
100
AcDbLayerTableRecord
  2
fixture
 70
     0
 62
    30
420
 16744192
  6
Continuous
370
    25
390
160B
347
1641
348
0
  0
LAYER
  5
16E9
330
15FF
100
AcDbSymbolTableRecord
100
AcDbLayerTableRecord
  2
in_cut
 70
     0
 62
     5
420
      255
  6
Continuous
370
    25
390
160B
347
1641
348
0
  0
LAYER
  5
16EA
330
15FF
100
AcDbSymbolTableRecord
100
AcDbLayerTableRecord
  2
out_cut
 70
     0
 62
     1
420
 16711680
  6
Continuous
370
    25
390
160B
347
1641
348
0
  0
LAYER
  5
16EB
330
15FF
100
AcDbSymbolTableRecord
100
AcDbLayerTableRecord
  2
pocket
 70
     0
 62
     6
420
 16711935
  6
Continuous
370
    25
390
160B
347
1641
348
0
  0
ENDTAB
  0
TABLE
  2
STYLE
  5
1600
330
0
100
AcDbSymbolTable
 70
    17
  0
STYLE
  5
160D
330
1600
100
AcDbSymbolTableRecord
100
AcDbTextStyleTableRecord
  2
Standard
 70
     0
 40
0.0
 41
1.0
 50
0.0
 71
     0
 42
0.2
  3
txt
  4

  0
STYLE
  5
16A2
330
1600
100
AcDbSymbolTableRecord
100
AcDbTextStyleTableRecord
  2
QCADDimTextStyle
 70
     0
 40
0.0
 41
1.0
 50
0.0
 71
     0
 42
0.2
  3
txt
  4

  0
STYLE
  5
16A4
330
1600
100
AcDbSymbolTableRecord
100
AcDbTextStyleTableRecord
  2
textstyle0
 70
     0
 40
0.0
 41
1.0
 50
0.0
 71
     0
 42
0.2
  3
ltypeshp.shx
  4

  0
STYLE
  5
16B2
330
1600
100
AcDbSymbolTableRecord
100
AcDbTextStyleTableRecord
  2
textstyle1
 70
     0
 40
0.0
 41
1.0
 50
0.0
 71
     0
 42
0.2
  3
ltypeshp.shx
  4

  0
STYLE
  5
16B3
330
1600
100
AcDbSymbolTableRecord
100
AcDbTextStyleTableRecord
  2
textstyle2
 70
     0
 40
0.0
 41
1.0
 50
0.0
 71
     0
 42
0.2
  3
ltypeshp.shx
  4

  0
STYLE
  5
16BC
330
1600
100
AcDbSymbolTableRecord
100
AcDbTextStyleTableRecord
  2
textstyle3
 70
     0
 40
0.0
 41
1.0
 50
0.0
 71
     0
 42
0.2
  3
qcadshp.shx
  4

  0
STYLE
  5
16BE
330
1600
100
AcDbSymbolTableRecord
100
AcDbTextStyleTableRecord
  2
textstyle4
 70
     0
 40
0.0
 41
1.0
 50
0.0
 71
     0
 42
0.2
  3
qcadshp.shx
  4

  0
STYLE
  5
16C1
330
1600
100
AcDbSymbolTableRecord
100
AcDbTextStyleTableRecord
  2
textstyle5
 70
     0
 40
0.0
 41
1.0
 50
0.0
 71
     0
 42
0.2
  3
qcadshp.shx
  4

  0
STYLE
  5
16C5
330
1600
100
AcDbSymbolTableRecord
100
AcDbTextStyleTableRecord
  2
textstyle6
 70
     0
 40
0.0
 41
1.0
 50
0.0
 71
     0
 42
0.2
  3
qcadshp.shx
  4

  0
STYLE
  5
16D0
330
1600
100
AcDbSymbolTableRecord
100
AcDbTextStyleTableRecord
  2
textstyle7
 70
     0
 40
0.0
 41
1.0
 50
0.0
 71
     0
 42
0.2
  3
qcadshp.shx
  4

  0
STYLE
  5
16D2
330
1600
100
AcDbSymbolTableRecord
100
AcDbTextStyleTableRecord
  2
textstyle8
 70
     0
 40
0.0
 41
1.0
 50
0.0
 71
     0
 42
0.2
  3
ltypeshp.shx
  4

  0
STYLE
  5
16D5
330
1600
100
AcDbSymbolTableRecord
100
AcDbTextStyleTableRecord
  2
textstyle9
 70
     0
 40
0.0
 41
1.0
 50
0.0
 71
     0
 42
0.2
  3
qcadshp.shx
  4

  0
STYLE
  5
16D9
330
1600
100
AcDbSymbolTableRecord
100
AcDbTextStyleTableRecord
  2
textstyle10
 70
     0
 40
0.0
 41
1.0
 50
0.0
 71
     0
 42
0.2
  3
ltypeshp.shx
  4

  0
STYLE
  5
16DB
330
1600
100
AcDbSymbolTableRecord
100
AcDbTextStyleTableRecord
  2
textstyle11
 70
     0
 40
0.0
 41
1.0
 50
0.0
 71
     0
 42
0.2
  3
STANDARD
  4

  0
STYLE
  5
16E0
330
1600
100
AcDbSymbolTableRecord
100
AcDbTextStyleTableRecord
  2
textstyle12
 70
     0
 40
0.0
 41
1.0
 50
0.0
 71
     0
 42
0.2
  3
STANDARD
  4

  0
STYLE
  5
16E2
330
1600
100
AcDbSymbolTableRecord
100
AcDbTextStyleTableRecord
  2
textstyle13
 70
     0
 40
0.0
 41
1.0
 50
0.0
 71
     0
 42
0.2
  3
ltypeshp.shx
  4

  0
STYLE
  5
16E3
330
1600
100
AcDbSymbolTableRecord
100
AcDbTextStyleTableRecord
  2
textstyle14
 70
     0
 40
0.0
 41
1.0
 50
0.0
 71
     0
 42
0.2
  3
ltypeshp.shx
  4

  0
ENDTAB
  0
TABLE
  2
VIEW
  5
1602
330
0
100
AcDbSymbolTable
 70
     0
  0
ENDTAB
  0
TABLE
  2
UCS
  5
1603
330
0
100
AcDbSymbolTable
 70
     0
  0
ENDTAB
  0
TABLE
  2
APPID
  5
1605
330
0
100
AcDbSymbolTable
 70
     2
  0
APPID
  5
160E
330
1605
100
AcDbSymbolTableRecord
100
AcDbRegAppTableRecord
  2
ACAD
 70
     0
  0
APPID
  5
1669
330
1605
100
AcDbSymbolTableRecord
100
AcDbRegAppTableRecord
  2
QCAD
 70
     0
  0
ENDTAB
  0
TABLE
  2
DIMSTYLE
  5
1606
330
0
100
AcDbSymbolTable
 70
     2
100
AcDbDimStyleTable
  0
DIMSTYLE
105
1622
330
1606
100
AcDbSymbolTableRecord
100
AcDbDimStyleTableRecord
  2
Standard
 70
     0
178
     0
340
160D
  0
DIMSTYLE
105
16A3
330
1606
100
AcDbSymbolTableRecord
100
AcDbDimStyleTableRecord
  2
QCADDimStyle
 70
     0
 41
2.5
 42
0.625
 44
1.25
 73
     0
 77
     1
140
2.5
147
0.625
178
     0
340
16A2
  0
ENDTAB
  0
TABLE
  2
BLOCK_RECORD
  5
15FE
330
0
100
AcDbSymbolTable
 70
     4
  0
BLOCK_RECORD
  5
161A
330
15FE
100
AcDbSymbolTableRecord
100
AcDbBlockTableRecord
  2
*Model_Space
340
161D
 70
     0
280
     1
281
     0
  0
BLOCK_RECORD
  5
1616
330
15FE
100
AcDbSymbolTableRecord
100
AcDbBlockTableRecord
  2
*Paper_Space
340
1619
 70
     0
280
     1
281
     0
  0
BLOCK_RECORD
  5
16EE
330
15FE
100
AcDbSymbolTableRecord
100
AcDbBlockTableRecord
  2
block 1
340
0
 70
     0
280
     1
281
     0
  0
BLOCK_RECORD
  5
16F1
330
15FE
100
AcDbSymbolTableRecord
100
AcDbBlockTableRecord
  2
block 2
340
0
 70
     0
280
     1
281
     0
  0
BLOCK_RECORD
  5
16F4
330
15FE
100
AcDbSymbolTableRecord
100
AcDbBlockTableRecord
  2
block 4
340
0
 70
     0
280
     1
281
     0
  0
BLOCK_RECORD
  5
16F7
330
15FE
100
AcDbSymbolTableRecord
100
AcDbBlockTableRecord
  2
CamTab
340
0
 70
     0
280
     1
281
     0
1001
QCAD
1000
pixelunit:true
  0
ENDTAB
  0
ENDSEC
  0
SECTION
  2
BLOCKS
  0
BLOCK
  5
161B
330
161A
100
AcDbEntity
  8
0
100
AcDbBlockBegin
  2
*Model_Space
 70
     0
 10
0.0
 20
0.0
 30
0.0
  3
*Model_Space
  1

  0
ENDBLK
  5
161C
330
161A
100
AcDbEntity
  8
0
100
AcDbBlockEnd
  0
BLOCK
  5
1617
330
1616
100
AcDbEntity
 67
     1
  8
0
100
AcDbBlockBegin
  2
*Paper_Space
 70
     0
 10
0.0
 20
0.0
 30
0.0
  3
*Paper_Space
  1

  0
ENDBLK
  5
1618
330
1616
100
AcDbEntity
 67
     1
  8
0
100
AcDbBlockEnd
  0
BLOCK
  5
16EF
330
16EE
100
AcDbEntity
  8
0
100
AcDbBlockBegin
  2
block 1
 70
     0
 10
0.0
 20
0.0
 30
0.0
  3
block 1
  1

  0
LWPOLYLINE
  5
19E
330
16EE
100
AcDbEntity
  8
out_cut
100
AcDbPolyline
 90
        8
 70
   129
 43
0.0
 10
32.41378615688149
 20
-2.5
 10
32.41378615688149
 20
9.5
 42
0.414213562373095
 10
28.41378615688149
 20
13.5
 10
-26.00000000000009
 20
13.5
 10
-50.00000000000009
 20
10.5
 42
0.9999999999999999
 10
-50.00000000000009
 20
-3.5
 10
-26.00000000000009
 20
-6.5
 10
28.41378615688149
 20
-6.5
 42
0.414213562373095
1001
QCAD
1000
NestingQuantity:1
  0
CIRCLE
  5
193
330
16EE
100
AcDbEntity
  8
drill
100
AcDbCircle
 10
-50.00000000000009
 20
3.5
 30
0.0
 40
2.0
1001
QCAD
1000
NestingQuantity:1
  0
LINE
  5
194
330
16EE
100
AcDbEntity
  8
pocket
100
AcDbLine
 10
34.00000000000009
 20
14.0
 30
0.0
 11
-34.00000000000009
 21
14.0
 31
0.0
1001
QCAD
1000
NestingQuantity:1
  0
LINE
  5
195
330
16EE
100
AcDbEntity
  8
pocket
100
AcDbLine
 10
-34.00000000000009
 20
14.0
 30
0.0
 11
-34.00000000000009
 21
7.0
 31
0.0
1001
QCAD
1000
NestingQuantity:1
  0
LINE
  5
196
330
16EE
100
AcDbEntity
  8
pocket
100
AcDbLine
 10
-34.00000000000009
 20
7.0
 30
0.0
 11
34.00000000000009
 21
7.0
 31
0.0
1001
QCAD
1000
NestingQuantity:1
  0
LINE
  5
197
330
16EE
100
AcDbEntity
  8
pocket
100
AcDbLine
 10
34.00000000000009
 20
7.0
 30
0.0
 11
33.99999999999997
 21
14.0
 31
0.0
1001
QCAD
1000
NestingQuantity:1
  0
LINE
  5
198
330
16EE
100
AcDbEntity
  8
pocket
100
AcDbLine
 10
33.99999999999997
 20
-7.0
 30
0.0
 11
-34.00000000000009
 21
-7.0
 31
0.0
1001
QCAD
1000
NestingQuantity:1
  0
LINE
  5
199
330
16EE
100
AcDbEntity
  8
pocket
100
AcDbLine
 10
-34.00000000000009
 20
-7.0
 30
0.0
 11
-34.00000000000009
 21
0.0
 31
0.0
1001
QCAD
1000
NestingQuantity:1
  0
LINE
  5
19A
330
16EE
100
AcDbEntity
  8
pocket
100
AcDbLine
 10
-34.00000000000009
 20
0.0
 30
0.0
 11
34.00000000000009
 21
0.0
 31
0.0
1001
QCAD
1000
NestingQuantity:1
  0
LINE
  5
19D
330
16EE
100
AcDbEntity
  8
pocket
100
AcDbLine
 10
34.00000000000009
 20
0.0
 30
0.0
 11
33.99999999999997
 21
-7.0
 31
0.0
1001
QCAD
1000
NestingQuantity:1
  0
CIRCLE
  5
19B
330
16EE
100
AcDbEntity
  8
in_cut
100
AcDbCircle
 10
-0.0000000000001279
 20
3.5
 30
0.0
 40
2.75
1001
QCAD
1000
NestingQuantity:1
  0
CIRCLE
  5
19C
330
16EE
100
AcDbEntity
  8
in_cut
100
AcDbCircle
 10
19.99999999999986
 20
3.5
 30
0.0
 40
2.75
1001
QCAD
1000
NestingQuantity:1
  0
ENDBLK
  5
16F0
330
16EE
100
AcDbEntity
  8
0
100
AcDbBlockEnd
  0
BLOCK
  5
16F2
330
16F1
100
AcDbEntity
  8
0
100
AcDbBlockBegin
  2
block 2
 70
     0
 10
0.0
 20
0.0
 30
0.0
  3
block 2
  1

  0
LWPOLYLINE
  5
18D
330
16F1
100
AcDbEntity
  8
out_cut
100
AcDbPolyline
 90
        4
 70
   129
 43
0.0
 10
-11.83178597237321
 20
-7.0
 10
1.9319369719029
 20
-7.979806037499202
 42
1.073718206662351
 10
1.9319369719029
 20
7.979806037499202
 10
-11.83178597237321
 20
7.0
 42
0.9999999999999999
1001
QCAD
1000
NestingQuantity:1
  0
LWPOLYLINE
  5
18F
330
16F1
100
AcDbEntity
  8
pocket
100
AcDbPolyline
 90
        4
 70
   129
 43
0.0
 10
10.5
 20
10.5
 10
-7.5
 20
10.5
 10
-7.5
 20
3.5
 10
10.5
 20
3.5
1001
QCAD
1000
NestingQuantity:1
  0
LWPOLYLINE
  5
190
330
16F1
100
AcDbEntity
  8
pocket
100
AcDbPolyline
 90
        4
 70
   129
 43
0.0
 10
10.5
 20
-10.5
 10
-7.5
 20
-10.5
 10
-7.5
 20
-3.5
 10
10.5
 20
-3.5
1001
QCAD
1000
NestingQuantity:1
  0
LWPOLYLINE
  5
18E
330
16F1
100
AcDbEntity
  8
drill
100
AcDbPolyline
 90
        2
 70
   129
 43
0.0
 10
-13.35162397687552
 20
0.0003078841380955
 42
1.0
 10
-10.35162397687552
 20
0.0003078841380955
 42
1.0
1001
QCAD
1000
NestingQuantity:1
  0
LWPOLYLINE
  5
18C
330
16F1
100
AcDbEntity
  8
in_cut
100
AcDbPolyline
 90
        2
 70
   129
 43
0.0
 10
0.0
 20
0.0
 42
1.0
 10
5.0
 20
0.0
 42
1.0
1001
QCAD
1000
NestingQuantity:1
  0
ENDBLK
  5
16F3
330
16F1
100
AcDbEntity
  8
0
100
AcDbBlockEnd
  0
BLOCK
  5
16F5
330
16F4
100
AcDbEntity
  8
0
100
AcDbBlockBegin
  2
block 4
 70
     0
 10
0.0
 20
0.0
 30
0.0
  3
block 4
  1

  0
LINE
  5
165
330
16F4
100
AcDbEntity
  8
out_cut
100
AcDbLine
 10
-21.83178597237318
 20
-7.0
 30
0.0
 11
1.931936971902928
 21
-7.979806037499202
 31
0.0
1001
QCAD
1000
NestingQuantity:1
  0
ARC
  5
15D
330
16F4
100
AcDbEntity
  8
out_cut
100
AcDbCircle
 10
2.5
 20
0.0
 30
0.0
 40
7.999999999999999
100
AcDbArc
 50
265.9281215321237
 51
94.07187846787627
1001
QCAD
1000
NestingQuantity:1
  0
LINE
  5
15F
330
16F4
100
AcDbEntity
  8
out_cut
100
AcDbLine
 10
1.931936971902928
 20
7.979806037499202
 30
0.0
 11
-21.83178597237318
 21
7.0
 31
0.0
1001
QCAD
1000
NestingQuantity:1
  0
ARC
  5
160
330
16F4
100
AcDbEntity
  8
out_cut
100
AcDbCircle
 10
-21.83178597237318
 20
0.0
 30
0.0
 40
7.0
100
AcDbArc
 50
90.0
 51
270.0
1001
QCAD
1000
NestingQuantity:1
  0
LINE
  5
168
330
16F4
100
AcDbEntity
  8
pocket
100
AcDbLine
 10
11.5
 20
10.5
 30
0.0
 11
-17.49999999999997
 21
10.5
 31
0.0
1001
QCAD
1000
NestingQuantity:1
  0
LINE
  5
169
330
16F4
100
AcDbEntity
  8
pocket
100
AcDbLine
 10
-17.49999999999997
 20
10.5
 30
0.0
 11
-17.49999999999997
 21
3.5
 31
0.0
1001
QCAD
1000
NestingQuantity:1
  0
LINE
  5
163
330
16F4
100
AcDbEntity
  8
pocket
100
AcDbLine
 10
-17.49999999999997
 20
3.5
 30
0.0
 11
11.50000000000011
 21
3.5
 31
0.0
1001
QCAD
1000
NestingQuantity:1
  0
LINE
  5
164
330
16F4
100
AcDbEntity
  8
pocket
100
AcDbLine
 10
11.50000000000011
 20
3.5
 30
0.0
 11
11.5
 21
10.5
 31
0.0
1001
QCAD
1000
NestingQuantity:1
  0
LINE
  5
16A
330
16F4
100
AcDbEntity
  8
pocket
100
AcDbLine
 10
11.5
 20
-10.5
 30
0.0
 11
-17.49999999999997
 21
-10.5
 31
0.0
1001
QCAD
1000
NestingQuantity:1
  0
LINE
  5
15E
330
16F4
100
AcDbEntity
  8
pocket
100
AcDbLine
 10
-17.49999999999997
 20
-10.5
 30
0.0
 11
-17.49999999999997
 21
-3.5
 31
0.0
1001
QCAD
1000
NestingQuantity:1
  0
LINE
  5
166
330
16F4
100
AcDbEntity
  8
pocket
100
AcDbLine
 10
-17.49999999999997
 20
-3.5
 30
0.0
 11
11.5
 21
-3.5
 31
0.0
1001
QCAD
1000
NestingQuantity:1
  0
LINE
  5
167
330
16F4
100
AcDbEntity
  8
pocket
100
AcDbLine
 10
11.5
 20
-3.5
 30
0.0
 11
11.5
 21
-10.5
 31
0.0
1001
QCAD
1000
NestingQuantity:1
  0
LWPOLYLINE
  5
161
330
16F4
100
AcDbEntity
  8
drill
100
AcDbPolyline
 90
        2
 70
   129
 43
0.0
 10
-23.35162397687549
 20
0.0003078841380955
 42
1.0
 10
-20.35162397687549
 20
0.0003078841380955
 42
1.0
1001
QCAD
1000
NestingQuantity:1
  0
LWPOLYLINE
  5
162
330
16F4
100
AcDbEntity
  8
in_cut
100
AcDbPolyline
 90
        2
 70
   129
 43
0.0
 10
0.0
 20
0.0
 42
1.0
 10
5.0
 20
0.0
 42
1.0
1001
QCAD
1000
NestingQuantity:1
  0
ENDBLK
  5
16F6
330
16F4
100
AcDbEntity
  8
0
100
AcDbBlockEnd
  0
BLOCK
  5
16F8
330
16F7
100
AcDbEntity
  8
0
100
AcDbBlockBegin
  2
CamTab
 70
     0
 10
0.0
 20
0.0
 30
0.0
  3
CamTab
  1

  0
HATCH
  5
3E
330
16F7
100
AcDbEntity
  8
0
 62
     0
440
 33554687
100
AcDbHatch
 10
0.0
 20
0.0
 30
0.0
210
0.0
220
0.0
230
1.0
  2
SOLID
 70
     1
 71
     0
 91
        1
 92
        0
 93
        4
 72
     1
 10
-8.0
 20
8.0
 11
8.0
 21
8.0
 72
     1
 10
8.0
 20
8.0
 11
8.0
 21
-8.0
 72
     1
 10
8.0
 20
-8.0
 11
-8.0
 21
-8.0
 72
     1
 10
-8.0
 20
-8.0
 11
-8.0
 21
8.0
 97
        0
 75
     0
 76
     1
 98
        0
  0
HATCH
  5
3F
330
16F7
100
AcDbEntity
  8
0
 62
   176
420
      128
440
 33554687
100
AcDbHatch
 10
0.0
 20
0.0
 30
0.0
210
0.0
220
0.0
230
1.0
  2
SOLID
 70
     1
 71
     0
 91
        1
 92
        0
 93
        8
 72
     1
 10
-0.8556616643929047
 20
-6.4
 11
-0.8556616643929047
 21
4.889495225102321
 72
     1
 10
-0.8556616643929047
 20
4.889495225102321
 11
-5.072851296043655
 21
4.889495225102321
 72
     1
 10
-5.072851296043655
 20
4.889495225102321
 11
-5.072851296043655
 21
6.4
 72
     1
 10
-5.072851296043655
 20
6.4
 11
5.072851296043655
 21
6.4
 72
     1
 10
5.072851296043655
 20
6.4
 11
5.072851296043656
 21
4.889495225102321
 72
     1
 10
5.072851296043656
 20
4.889495225102321
 11
0.8381991814461127
 21
4.889495225102321
 72
     1
 10
0.8381991814461127
 20
4.889495225102321
 11
0.8381991814461127
 21
-6.4
 72
     1
 10
0.8381991814461127
 20
-6.4
 11
-0.8556616643929047
 21
-6.4
 97
        0
 75
     0
 76
     1
 98
        0
  0
ENDBLK
  5
16F9
330
16F7
100
AcDbEntity
  8
0
100
AcDbBlockEnd
  0
ENDSEC
  0
SECTION
  2
ENTITIES
  0
LWPOLYLINE
  5
123A
330
161A
100
AcDbEntity
  8
out_cut
100
AcDbPolyline
 90
        8
 70
   129
 43
0.0
 10
179.9137861568815
 20
120.0
 10
125.4999999999999
 20
120.0
 10
101.4999999999999
 20
117.0
 42
0.9999999999999999
 10
101.4999999999999
 20
103.0
 10
125.4999999999999
 20
100.0
 10
179.9137861568815
 20
100.0
 42
0.414213562373095
 10
183.9137861568815
 20
104.0
 10
183.9137861568815
 20
116.0
 42
0.414213562373095
  0
LWPOLYLINE
  5
123B
330
161A
100
AcDbEntity
  8
drill
100
AcDbPolyline
 90
        2
 70
   129
 43
0.0
 10
99.49999999999989
 20
110.0
 42
0.9999999999999999
 10
103.4999999999999
 20
110.0
 42
0.9999999999999999
  0
LWPOLYLINE
  5
123C
330
161A
100
AcDbEntity
  8
pocket
100
AcDbPolyline
 90
        4
 70
   129
 43
0.0
 10
117.4999999999999
 20
113.5
 10
185.5000000000001
 20
113.5
 10
185.5000000000001
 20
120.5
 10
117.4999999999999
 20
120.5
  0
LWPOLYLINE
  5
123D
330
161A
100
AcDbEntity
  8
pocket
100
AcDbPolyline
 90
        4
 70
   129
 43
0.0
 10
117.4999999999999
 20
106.5
 10
185.5000000000001
 20
106.5
 10
185.5
 20
99.5
 10
117.4999999999999
 20
99.5
  0
LWPOLYLINE
  5
123E
330
161A
100
AcDbEntity
  8
in_cut
100
AcDbPolyline
 90
        2
 70
   129
 43
0.0
 10
148.7499999999999
 20
110.0
 42
0.9999999999999999
 10
154.2499999999999
 20
110.0
 42
0.9999999999999999
  0
LWPOLYLINE
  5
123F
330
161A
100
AcDbEntity
  8
in_cut
100
AcDbPolyline
 90
        2
 70
   129
 43
0.0
 10
168.7499999999999
 20
110.0
 42
0.9999999999999999
 10
174.2499999999999
 20
110.0
 42
0.9999999999999999
  0
LWPOLYLINE
  5
1240
330
161A
100
AcDbEntity
  8
out_cut
100
AcDbPolyline
 90
        4
 70
   129
 43
0.0
 10
260.1524732900609
 20
161.7533333678725
 10
246.3887503457848
 20
160.7735273303733
 42
0.9999999999999999
 10
246.3887503457848
 20
146.7735273303733
 10
260.1524732900609
 20
145.7937212928741
 42
1.073718206662351
  0
LWPOLYLINE
  5
1241
330
161A
100
AcDbEntity
  8
pocket
100
AcDbPolyline
 90
        4
 70
   129
 43
0.0
 10
250.720536318158
 20
157.2735273303733
 10
268.720536318158
 20
157.2735273303733
 10
268.720536318158
 20
164.2735273303733
 10
250.720536318158
 20
164.2735273303733
  0
LWPOLYLINE
  5
1242
330
161A
100
AcDbEntity
  8
pocket
100
AcDbPolyline
 90
        4
 70
   129
 43
0.0
 10
250.720536318158
 20
150.2735273303733
 10
268.720536318158
 20
150.2735273303733
 10
268.720536318158
 20
143.2735273303733
 10
250.720536318158
 20
143.2735273303733
  0
LWPOLYLINE
  5
1243
330
161A
100
AcDbEntity
  8
drill
100
AcDbPolyline
 90
        2
 70
   129
 43
0.0
 10
244.8689123412825
 20
153.7738352145114
 42
0.9999999999999999
 10
247.8689123412825
 20
153.7738352145114
 42
0.9999999999999999
  0
LWPOLYLINE
  5
1244
330
161A
100
AcDbEntity
  8
in_cut
100
AcDbPolyline
 90
        2
 70
   129
 43
0.0
 10
258.220536318158
 20
153.7735273303733
 42
0.9999999999999999
 10
263.220536318158
 20
153.7735273303733
 42
0.9999999999999999
  0
LWPOLYLINE
  5
1245
330
161A
100
AcDbEntity
  8
out_cut
100
AcDbPolyline
 90
        4
 70
   129
 43
0.0
 10
47.0201939625008
 20
64.59782995808938
 10
48.0
 20
40.83410701381329
 42
0.9999999999999999
 10
62.0
 20
40.83410701381329
 10
62.9798060374992
 20
64.59782995808936
 42
1.073718206662349
  0
LWPOLYLINE
  5
1246
330
161A
100
AcDbEntity
  8
out_cut
100
AcDbPolyline
 90
        4
 70
   129
 43
0.0
 10
217.0201939625008
 20
64.59782995808938
 10
217.9999999999999
 20
40.83410701381329
 42
0.9999999999999999
 10
232.0
 20
40.83410701381329
 10
232.9798060374992
 20
64.59782995808935
 42
1.073718206662349
  0
LWPOLYLINE
  5
1247
330
161A
100
AcDbEntity
  8
pocket
100
AcDbPolyline
 90
        4
 70
   129
 43
0.0
 10
51.5
 20
45.16589298618648
 10
51.5
 20
74.16589298618656
 10
44.5
 20
74.16589298618645
 10
44.5
 20
45.16589298618648
  0
LWPOLYLINE
  5
1248
330
161A
100
AcDbEntity
  8
pocket
100
AcDbPolyline
 90
        4
 70
   129
 43
0.0
 10
221.4999999999999
 20
45.16589298618648
 10
221.5
 20
74.16589298618656
 10
214.5
 20
74.16589298618645
 10
214.4999999999999
 20
45.16589298618648
  0
LWPOLYLINE
  5
1249
330
161A
100
AcDbEntity
  8
pocket
100
AcDbPolyline
 90
        4
 70
   129
 43
0.0
 10
58.5
 20
45.16589298618648
 10
58.5
 20
74.16589298618645
 10
65.5
 20
74.16589298618645
 10
65.5
 20
45.16589298618648
  0
LWPOLYLINE
  5
124A
330
161A
100
AcDbEntity
  8
pocket
100
AcDbPolyline
 90
        4
 70
   129
 43
0.0
 10
228.5
 20
45.16589298618648
 10
228.5
 20
74.16589298618645
 10
235.5
 20
74.16589298618645
 10
235.5
 20
45.16589298618648
  0
LWPOLYLINE
  5
124B
330
161A
100
AcDbEntity
  8
drill
100
AcDbPolyline
 90
        2
 70
   129
 43
0.0
 10
54.99969211587469
 20
39.314269009311
 42
0.9999999999999906
 10
54.99969211593151
 20
42.314269009311
 42
1.000000000000009
  0
LWPOLYLINE
  5
124C
330
161A
100
AcDbEntity
  8
drill
100
AcDbPolyline
 90
        2
 70
   129
 43
0.0
 10
224.9996921158746
 20
39.314269009311
 42
1.0
 10
224.9996921159315
 20
42.314269009311
 42
0.9999999999999994
  0
LWPOLYLINE
  5
124D
330
161A
100
AcDbEntity
  8
in_cut
100
AcDbPolyline
 90
        2
 70
   129
 43
0.0
 10
55.0
 20
62.66589298618645
 42
0.9999999999999999
 10
55.0
 20
67.66589298618645
 42
0.9999999999999999
  0
LWPOLYLINE
  5
124E
330
161A
100
AcDbEntity
  8
in_cut
100
AcDbPolyline
 90
        2
 70
   129
 43
0.0
 10
225.0
 20
62.66589298618645
 42
0.9999999999999999
 10
225.0
 20
67.66589298618645
 42
0.9999999999999999
  0
LWPOLYLINE
  5
124F
330
161A
100
AcDbEntity
  8
out_cut
100
AcDbPolyline
 90
       14
 70
   129
 43
0.0
 10
50.0
 20
245.0
 42
0.414213562373095
 10
45.0
 20
250.0
 10
15.0
 20
250.0
 42
0.414213562373095
 10
10.0
 20
245.0
 10
9.999999999999886
 20
208.3727766016839
 42
0.0806115716705446
 10
10.51316701949492
 20
205.2104989415154
 10
20.0
 20
176.75
 10
20.0
 20
155.0
 42
0.414213562373095
 10
25.0
 20
150.0
 10
35.0
 20
150.0
 42
0.414213562373095
 10
40.0
 20
155.0
 10
40.0
 20
176.75
 10
49.48683298050511
 20
205.2104989415154
 42
0.0806115716705408
 10
50.0
 20
208.3727766016837
  0
LWPOLYLINE
  5
1250
330
161A
100
AcDbEntity
  8
out_cut
100
AcDbPolyline
 90
       14
 70
   129
 43
0.0
 10
88.367177634061
 20
265.5299003704699
 42
0.414213562373095
 10
83.367177634061
 20
260.5299003704699
 10
83.367177634061
 20
230.5299003704699
 42
0.414213562373095
 10
88.367177634061
 20
225.5299003704699
 10
124.9944010323772
 20
225.5299003704699
 42
0.0806115716705357
 10
128.1566786925456
 20
226.0430673899648
 10
156.617177634061
 20
235.5299003704699
 10
178.367177634061
 20
235.5299003704699
 42
0.414213562373095
 10
183.367177634061
 20
240.5299003704699
 10
183.367177634061
 20
250.5299003704699
 42
0.414213562373095
 10
178.367177634061
 20
255.5299003704699
 10
156.617177634061
 20
255.5299003704699
 10
128.1566786925456
 20
265.016733350975
 42
0.0806115716705354
 10
124.9944010323772
 20
265.5299003704699
  0
LWPOLYLINE
  5
1251
330
161A
100
AcDbEntity
  8
out_cut
100
AcDbPolyline
 90
       14
 70
   129
 43
0.0
 10
295.0
 20
50.00000000000003
 42
0.4142135623730942
 10
290.0
 20
45.0
 10
290.0
 20
15.0
 42
0.414213562373095
 10
295.0
 20
10.0
 10
331.6272233983162
 20
10.0
 42
0.0806115716705355
 10
334.7895010584846
 20
10.51316701949489
 10
363.25
 20
20.0
 10
385.0
 20
20.0
 42
0.414213562373095
 10
390.0
 20
25.0
 10
390.0
 20
35.0
 42
0.414213562373095
 10
385.0
 20
40.0
 10
363.25
 20
40.0
 10
334.7895010584846
 20
49.48683298050517
 42
0.0806115716705352
 10
331.6272233983162
 20
50.00000000000003
  0
LWPOLYLINE
  5
1252
330
161A
100
AcDbEntity
  8
out_cut
100
AcDbPolyline
 90
       22
 70
   129
 43
0.0
 10
308.844819434263
 20
161.7605923549235
 42
0.2507648909333106
 10
306.3486685512495
 20
163.0964917662478
 10
298.1328438267135
 20
163.0964917662478
 10
298.1328438267133
 20
135.9781039465064
 42
-0.3646165590248662
 10
295.6470438267134
 20
133.0224993789095
 42
0.3646165590248674
 10
291.5040438267134
 20
128.0964917662478
 10
291.5040438267134
 20
98.09649176624784
 42
0.414213562373095
 10
296.5040438267134
 20
93.09649176624784
 10
333.1312672250295
 20
93.09649176624784
 42
0.0806115716705355
 10
336.293544885198
 20
93.60965878574271
 10
364.2921935091679
 20
102.9425416603994
 42
-0.0806115716705327
 10
365.2408768072184
 20
103.0964917662479
 10
373.5040438267134
 20
103.0964917662478
 42
0.4142135623730966
 10
378.5040438267134
 20
108.0964917662478
 10
378.5040438267134
 20
118.0964917662478
 42
0.414213562373095
 10
373.5040438267134
 20
123.0964917662478
 10
365.2408768072182
 20
123.0964917662478
 42
-0.0806115716705344
 10
364.2921935091677
 20
123.2504418720964
 10
336.293544885198
 20
132.583324746753
 42
0.0806115716705354
 10
333.1312672250295
 20
133.0964917662478
 10
329.5597711021774
 20
133.0964917662478
 42
-0.250764890933312
 10
327.0636202191639
 20
134.4323911775721
  0
LWPOLYLINE
  5
1253
330
161A
100
AcDbEntity
  8
in_cut
100
AcDbPolyline
 90
        2
 70
   129
 43
0.0
 10
398.0
 20
162.5000000000001
 42
0.9999999999999999
 10
398.0
 20
157.5000000000001
 42
0.9999999999999999
  0
LWPOLYLINE
  5
1254
330
161A
100
AcDbEntity
  8
in_cut
100
AcDbPolyline
 90
        2
 70
   129
 43
0.0
 10
422.0
 20
162.5000000000001
 42
0.9999999999999999
 10
422.0
 20
157.5000000000001
 42
0.9999999999999999
  0
LWPOLYLINE
  5
1255
330
161A
100
AcDbEntity
  8
in_cut
100
AcDbPolyline
 90
        2
 70
   129
 43
0.0
 10
398.0
 20
102.5000000000001
 42
0.9999999999999999
 10
398.0
 20
97.50000000000006
 42
0.9999999999999999
  0
LWPOLYLINE
  5
1256
330
161A
100
AcDbEntity
  8
in_cut
100
AcDbPolyline
 90
        2
 70
   129
 43
0.0
 10
422.0
 20
102.5000000000001
 42
0.9999999999999999
 10
422.0
 20
97.50000000000006
 42
0.9999999999999999
  0
LWPOLYLINE
  5
1257
330
161A
100
AcDbEntity
  8
drill
100
AcDbPolyline
 90
        2
 70
   129
 43
0.0
 10
457.6281306120273
 20
141.0320259866286
 42
0.9999999999999999
 10
457.6281306120258
 20
144.2070169866286
 42
0.9999999999999999
  0
LWPOLYLINE
  5
1258
330
161A
100
AcDbEntity
  8
out_cut
100
AcDbPolyline
 90
        6
 70
   129
 43
0.0
 10
408.0
 20
167.0000000000001
 42
0.414213562373095
 10
405.0
 20
170.0000000000001
 10
391.0
 20
170.0000000000001
 42
0.414213562373095
 10
388.0
 20
167.0000000000001
 10
388.0
 20
90.00000000000006
 10
408.0
 20
90.00000000000006
  0
LWPOLYLINE
  5
1259
330
161A
100
AcDbEntity
  8
in_cut
100
AcDbPolyline
 90
        2
 70
   129
 43
0.0
 10
18.5
 20
226.75
 42
0.9999999999999999
 10
41.5
 20
226.75
 42
0.9999999999999999
  0
LWPOLYLINE
  5
125A
330
161A
100
AcDbEntity
  8
out_cut
100
AcDbPolyline
 90
        6
 70
   129
 43
0.0
 10
432.0
 20
167.0000000000001
 42
0.414213562373095
 10
429.0
 20
170.0000000000001
 10
415.0
 20
170.0000000000001
 42
0.414213562373095
 10
412.0
 20
167.0000000000001
 10
412.0000000000001
 20
90.00000000000006
 10
432.0
 20
90.00000000000006
  0
LWPOLYLINE
  5
125B
330
161A
100
AcDbEntity
  8
in_cut
100
AcDbPolyline
 90
        2
 70
   129
 43
0.0
 10
95.117177634061
 20
245.5299003704699
 42
0.9999999999999999
 10
118.117177634061
 20
245.5299003704699
 42
0.9999999999999999
  0
LWPOLYLINE
  5
125C
330
161A
100
AcDbEntity
  8
in_cut
100
AcDbPolyline
 90
        2
 70
   129
 43
0.0
 10
301.75
 20
30.0
 42
0.9999999999999999
 10
324.75
 20
30.0
 42
0.9999999999999999
  0
LWPOLYLINE
  5
125D
330
161A
100
AcDbEntity
  8
drill
100
AcDbPolyline
 90
        2
 70
   129
 43
0.0
 10
456.3581336120284
 20
92.77216157241403
 42
0.9999999999999821
 10
456.3581336120248
 20
95.94715257241609
 42
1.000000000000018
  0
LWPOLYLINE
  5
125E
330
161A
100
AcDbEntity
  8
in_cut
100
AcDbPolyline
 90
        2
 70
   129
 43
0.0
 10
303.2540438267134
 20
113.0964917662478
 42
0.9999999999999999
 10
326.2540438267134
 20
113.0964917662478
 42
0.9999999999999999
  0
LWPOLYLINE
  5
125F
330
161A
100
AcDbEntity
  8
in_cut
100
AcDbPolyline
 90
        2
 70
   129
 43
0.0
 10
43.5
 20
211.25
 42
0.9999999999999999
 10
47.5
 20
211.25
 42
0.9999999999999999
  0
LWPOLYLINE
  5
1260
330
161A
100
AcDbEntity
  8
in_cut
100
AcDbPolyline
 90
        2
 70
   129
 43
0.0
 10
120.117177634061
 20
261.0299003704699
 42
0.9999999999999999
 10
124.117177634061
 20
261.0299003704699
 42
0.9999999999999999
  0
LWPOLYLINE
  5
1261
330
161A
100
AcDbEntity
  8
in_cut
100
AcDbPolyline
 90
        2
 70
   129
 43
0.0
 10
326.75
 20
45.50000000000004
 42
0.9999999999999999
 10
330.75
 20
45.50000000000004
 42
0.9999999999999999
  0
LWPOLYLINE
  5
1262
330
161A
100
AcDbEntity
  8
in_cut
100
AcDbPolyline
 90
        2
 70
   129
 43
0.0
 10
328.2540438267134
 20
128.5964917662478
 42
0.9999999999999999
 10
332.2540438267134
 20
128.5964917662478
 42
0.9999999999999999
  0
LWPOLYLINE
  5
1263
330
161A
100
AcDbEntity
  8
in_cut
100
AcDbPolyline
 90
        2
 70
   129
 43
0.0
 10
43.5
 20
242.25
 42
0.9999999999999999
 10
47.5
 20
242.25
 42
0.9999999999999999
  0
LWPOLYLINE
  5
1264
330
161A
100
AcDbEntity
  8
in_cut
100
AcDbPolyline
 90
        2
 70
   129
 43
0.0
 10
89.117177634061
 20
261.0299003704699
 42
0.9999999999999999
 10
93.117177634061
 20
261.0299003704699
 42
0.9999999999999999
  0
LWPOLYLINE
  5
1265
330
161A
100
AcDbEntity
  8
out_cut
100
AcDbPolyline
 90
       12
 70
   129
 43
0.0
 10
366.6144311049948
 20
86.72141043723221
 10
378.2451142281418
 20
86.72141043723221
 42
-0.0613213552369721
 10
378.9727211032507
 20
86.63183793766822
 10
416.3420379801037
 20
77.28950871845498
 42
-0.3441507314089221
 10
418.6144311049948
 20
74.37908121801898
 10
418.6144311049948
 20
49.72141043723221
 42
-0.414213562373095
 10
415.6144311049948
 20
46.72141043723221
 10
366.6144311049948
 20
46.72141043723221
 42
-0.414213562373095
 10
363.6144311049948
 20
49.72141043723221
 10
363.6144311049948
 20
58.4600546163031
 42
0.423659272868161
 10
363.6144311049948
 20
74.98276625816143
 10
363.6144311049948
 20
83.72141043723221
 42
-0.414213562373095
  0
LWPOLYLINE
  5
1266
330
161A
100
AcDbEntity
  8
in_cut
100
AcDbPolyline
 90
        2
 70
   129
 43
0.0
 10
295.75
 20
45.50000000000004
 42
0.9999999999999999
 10
299.75
 20
45.50000000000004
 42
0.9999999999999999
  0
LWPOLYLINE
  5
1267
330
161A
100
AcDbEntity
  8
in_cut
100
AcDbPolyline
 90
        2
 70
   129
 43
0.0
 10
297.2540438267134
 20
128.5964917662478
 42
0.9999999999999999
 10
301.2540438267134
 20
128.5964917662478
 42
0.9999999999999999
  0
LWPOLYLINE
  5
1268
330
161A
100
AcDbEntity
  8
drill
100
AcDbPolyline
 90
        2
 70
   129
 43
0.0
 10
508.4279836120273
 20
97.8521489866283
 42
0.9999999999999999
 10
508.4279836120258
 20
101.0271399866286
 42
0.9999999999999999
  0
LWPOLYLINE
  5
1269
330
161A
100
AcDbEntity
  8
in_cut
100
AcDbPolyline
 90
        2
 70
   129
 43
0.0
 10
12.5
 20
242.25
 42
0.9999999999999999
 10
16.5
 20
242.25
 42
0.9999999999999999
  0
LWPOLYLINE
  5
126A
330
161A
100
AcDbEntity
  8
in_cut
100
AcDbPolyline
 90
        2
 70
   129
 43
0.0
 10
89.117177634061
 20
230.0299003704699
 42
0.9999999999999999
 10
93.117177634061
 20
230.0299003704699
 42
0.9999999999999999
  0
LWPOLYLINE
  5
126B
330
161A
100
AcDbEntity
  8
in_cut
100
AcDbPolyline
 90
        2
 70
   129
 43
0.0
 10
295.75
 20
14.5
 42
0.9999999999999999
 10
299.75
 20
14.5
 42
0.9999999999999999
  0
LWPOLYLINE
  5
126C
330
161A
100
AcDbEntity
  8
in_cut
100
AcDbPolyline
 90
        2
 70
   129
 43
0.0
 10
297.2540438267134
 20
97.59649176624784
 42
0.9999999999999999
 10
301.2540438267134
 20
97.59649176624784
 42
0.9999999999999999
  0
LWPOLYLINE
  5
126D
330
161A
100
AcDbEntity
  8
drill
100
AcDbPolyline
 90
        2
 70
   129
 43
0.0
 10
508.4279836120284
 20
125.7920665724138
 42
0.9999999999999821
 10
508.4279836120247
 20
128.9670575724161
 42
1.000000000000018
  0
LWPOLYLINE
  5
126E
330
161A
100
AcDbEntity
  8
in_cut
100
AcDbPolyline
 90
        2
 70
   129
 43
0.0
 10
12.5
 20
211.25
 42
0.9999999999999999
 10
16.5
 20
211.25
 42
0.9999999999999999
  0
LWPOLYLINE
  5
126F
330
161A
100
AcDbEntity
  8
in_cut
100
AcDbPolyline
 90
        2
 70
   129
 43
0.0
 10
120.117177634061
 20
230.0299003704699
 42
0.9999999999999999
 10
124.117177634061
 20
230.0299003704699
 42
0.9999999999999999
  0
LWPOLYLINE
  5
1270
330
161A
100
AcDbEntity
  8
in_cut
100
AcDbPolyline
 90
        2
 70
   129
 43
0.0
 10
326.75
 20
14.5
 42
0.9999999999999999
 10
330.75
 20
14.5
 42
0.9999999999999999
  0
LWPOLYLINE
  5
1271
330
161A
100
AcDbEntity
  8
in_cut
100
AcDbPolyline
 90
        2
 70
   129
 43
0.0
 10
328.2540438267134
 20
97.59649176624784
 42
0.9999999999999999
 10
332.2540438267134
 20
97.59649176624784
 42
0.9999999999999999
  0
LWPOLYLINE
  5
1272
330
161A
100
AcDbEntity
  8
drill
100
AcDbPolyline
 90
        2
 70
   129
 43
0.0
 10
538.9078956120284
 20
92.77216157241403
 42
0.9999999999999999
 10
538.9078956120247
 20
95.94715257241609
 42
0.9999999999999997
  0
LWPOLYLINE
  5
1273
330
161A
100
AcDbEntity
  8
in_cut
100
AcDbPolyline
 90
        2
 70
   129
 43
0.0
 10
27.0
 20
186.75
 42
0.9999999999999999
 10
33.0
 20
186.75
 42
0.9999999999999999
  0
LWPOLYLINE
  5
1274
330
161A
100
AcDbEntity
  8
in_cut
100
AcDbPolyline
 90
        2
 70
   129
 43
0.0
 10
143.617177634061
 20
245.5299003704699
 42
0.9999999999999999
 10
149.617177634061
 20
245.5299003704699
 42
0.9999999999999999
  0
LWPOLYLINE
  5
1275
330
161A
100
AcDbEntity
  8
in_cut
100
AcDbPolyline
 90
        2
 70
   129
 43
0.0
 10
350.25
 20
30.0
 42
0.9999999999999999
 10
356.25
 20
30.0
 42
0.9999999999999999
  0
LWPOLYLINE
  5
1276
330
161A
100
AcDbEntity
  8
in_cut
100
AcDbPolyline
 90
        2
 70
   129
 43
0.0
 10
457.0130371120266
 20
78.14034148662866
 42
0.9999999999999999
 10
463.0130371120266
 20
78.14034148662866
 42
0.9999999999999999
  0
LWPOLYLINE
  5
1277
330
161A
100
AcDbEntity
  8
in_cut
100
AcDbPolyline
 90
        2
 70
   129
 43
0.0
 10
517.0130371120266
 20
78.14034148662866
 42
0.9999999999999999
 10
523.0130371120266
 20
78.14034148662866
 42
0.9999999999999999
  0
LWPOLYLINE
  5
1278
330
161A
100
AcDbEntity
  8
in_cut
100
AcDbPolyline
 90
        2
 70
   129
 43
0.0
 10
341.7540438267134
 20
113.0964917662478
 42
0.9999999999999999
 10
347.7540438267134
 20
113.0964917662478
 42
0.9999999999999999
  0
LWPOLYLINE
  5
1279
330
161A
100
AcDbEntity
  8
drill
100
AcDbPolyline
 90
        2
 70
   129
 43
0.0
 10
532.5579146120273
 20
141.0320259866286
 42
0.9999999999999999
 10
532.5579146120259
 20
144.2070169866286
 42
0.9999999999999999
  0
LWPOLYLINE
  5
127A
330
161A
100
AcDbEntity
  8
in_cut
100
AcDbPolyline
 90
        2
 70
   129
 43
0.0
 10
27.0
 20
161.75
 42
0.9999999999999999
 10
33.0
 20
161.75
 42
0.9999999999999999
  0
LWPOLYLINE
  5
127B
330
161A
100
AcDbEntity
  8
in_cut
100
AcDbPolyline
 90
        2
 70
   129
 43
0.0
 10
168.617177634061
 20
245.5299003704699
 42
0.9999999999999999
 10
174.617177634061
 20
245.5299003704699
 42
0.9999999999999999
  0
LWPOLYLINE
  5
127C
330
161A
100
AcDbEntity
  8
in_cut
100
AcDbPolyline
 90
        2
 70
   129
 43
0.0
 10
375.25
 20
30.0
 42
0.9999999999999999
 10
381.25
 20
30.0
 42
0.9999999999999999
  0
LWPOLYLINE
  5
127D
330
161A
100
AcDbEntity
  8
in_cut
100
AcDbPolyline
 90
        2
 70
   129
 43
0.0
 10
366.7540438267134
 20
113.0964917662478
 42
0.9999999999999999
 10
372.7540438267134
 20
113.0964917662478
 42
0.9999999999999999
  0
LWPOLYLINE
  5
127E
330
161A
100
AcDbEntity
  8
in_cut
100
AcDbPolyline
 90
        8
 70
   129
 43
0.0
 10
48.63245553203379
 20
89.0830409761571
 42
0.3228228060551023
 10
50.00000000000011
 20
90.98040757225817
 10
50.0
 20
98.09737069203373
 42
0.3228228060551016
 10
48.63245553203379
 20
99.99473728813463
 10
43.3675444679665
 20
99.99473728813476
 42
0.3228228060551416
 10
42.0
 20
98.0973706920337
 10
42.0
 20
90.98040757225827
 42
0.3228228060551246
 10
43.3675444679665
 20
89.0830409761571
  0
LWPOLYLINE
  5
127F
330
161A
100
AcDbEntity
  8
in_cut
100
AcDbPolyline
 90
        8
 70
   129
 43
0.0
 10
218.6324555320338
 20
89.0830409761571
 42
0.3228228060550977
 10
220.0000000000001
 20
90.98040757225817
 10
220.0
 20
98.09737069203376
 42
0.3228228060551057
 10
218.6324555320338
 20
99.99473728813463
 10
213.3675444679665
 20
99.99473728813474
 42
0.3228228060551348
 10
212.0
 20
98.09737069203365
 10
212.0
 20
90.98040757225829
 42
0.3228228060551217
 10
213.3675444679665
 20
89.0830409761571
  0
LWPOLYLINE
  5
1280
330
161A
100
AcDbEntity
  8
in_cut
100
AcDbPolyline
 90
        8
 70
   129
 43
0.0
 10
61.3675444679665
 20
89.08304097615708
 42
-0.322822806055131
 10
60.0
 20
90.98040757225823
 10
60.0
 20
98.09737069203356
 42
-0.3228228060551398
 10
61.3675444679665
 20
99.99473728813464
 10
66.63245553203379
 20
99.99473728813462
 42
-0.322822806055097
 10
68.0
 20
98.09737069203365
 10
68.0
 20
90.98040757225803
 42
-0.3228228060550959
 10
66.63245553203379
 20
89.0830409761571
  0
LWPOLYLINE
  5
1281
330
161A
100
AcDbEntity
  8
in_cut
100
AcDbPolyline
 90
        8
 70
   129
 43
0.0
 10
231.3675444679665
 20
89.0830409761571
 42
-0.3228228060551271
 10
230.0
 20
90.98040757225823
 10
230.0
 20
98.09737069203354
 42
-0.3228228060551348
 10
231.3675444679665
 20
99.99473728813463
 10
236.6324555320338
 20
99.99473728813463
 42
-0.3228228060550924
 10
238.0
 20
98.09737069203365
 10
238.0
 20
90.980407572258
 42
-0.3228228060550992
 10
236.6324555320338
 20
89.0830409761571
  0
LWPOLYLINE
  5
1282
330
161A
100
AcDbEntity
  8
in_cut
100
AcDbPolyline
 90
        2
 70
   129
 43
0.0
 10
117.5000000000001
 20
80.62843303768102
 42
0.9999999999999999
 10
122.5000000000001
 20
80.62843303768102
 42
0.9999999999999999
  0
LWPOLYLINE
  5
1283
330
161A
100
AcDbEntity
  8
in_cut
100
AcDbPolyline
 90
        2
 70
   129
 43
0.0
 10
203.1099390464681
 20
235.1674587608946
 42
0.9999999999999999
 10
208.1099390464681
 20
235.1674587608946
 42
0.9999999999999999
  0
LWPOLYLINE
  5
1284
330
161A
100
AcDbEntity
  8
in_cut
100
AcDbPolyline
 90
        2
 70
   129
 43
0.0
 10
139.8365047662897
 20
146.0191102837436
 42
0.9999999999999999
 10
134.8365047662897
 20
146.0191102837436
 42
0.9999999999999999
  0
LWPOLYLINE
  5
1285
330
161A
100
AcDbEntity
  8
in_cut
100
AcDbPolyline
 90
        2
 70
   129
 43
0.0
 10
116.2742698253808
 20
148.5511832551056
 42
0.9999999999999999
 10
116.2742698253808
 20
143.5511832551056
 42
0.9999999999999999
  0
LWPOLYLINE
  5
1286
330
161A
100
AcDbEntity
  8
in_cut
100
AcDbPolyline
 90
        2
 70
   129
 43
0.0
 10
22.50000000000011
 20
74.7888891321459
 42
0.9999999999999999
 10
27.50000000000011
 20
74.7888891321459
 42
0.9999999999999999
  0
LWPOLYLINE
  5
1287
330
161A
100
AcDbEntity
  8
in_cut
100
AcDbPolyline
 90
        2
 70
   129
 43
0.0
 10
192.5000000000001
 20
74.7888891321459
 42
0.9999999999999999
 10
197.5000000000001
 20
74.7888891321459
 42
0.9999999999999999
  0
LWPOLYLINE
  5
1288
330
161A
100
AcDbEntity
  8
in_cut
100
AcDbPolyline
 90
        2
 70
   129
 43
0.0
 10
157.5000000000002
 20
80.62843303768102
 42
0.9999999999999999
 10
162.5000000000002
 20
80.62843303768102
 42
0.9999999999999999
  0
LWPOLYLINE
  5
1289
330
161A
100
AcDbEntity
  8
in_cut
100
AcDbPolyline
 90
        2
 70
   129
 43
0.0
 10
243.1099390464681
 20
235.1674587608946
 42
0.9999999999999999
 10
248.1099390464681
 20
235.1674587608946
 42
0.9999999999999999
  0
LWPOLYLINE
  5
128A
330
161A
100
AcDbEntity
  8
in_cut
100
AcDbPolyline
 90
        2
 70
   129
 43
0.0
 10
199.8365047662898
 20
146.0191102837436
 42
0.9999999999999999
 10
194.8365047662898
 20
146.0191102837436
 42
0.9999999999999999
  0
LWPOLYLINE
  5
128B
330
161A
100
AcDbEntity
  8
in_cut
100
AcDbPolyline
 90
        2
 70
   129
 43
0.0
 10
116.2742698253808
 20
208.5511832551055
 42
0.9999999999999999
 10
116.2742698253808
 20
203.5511832551056
 42
0.9999999999999999
  0
LWPOLYLINE
  5
128C
330
161A
100
AcDbEntity
  8
in_cut
100
AcDbPolyline
 90
        2
 70
   129
 43
0.0
 10
82.50000000000011
 20
74.7888891321459
 42
0.9999999999999999
 10
87.50000000000011
 20
74.7888891321459
 42
0.9999999999999999
  0
LWPOLYLINE
  5
128D
330
161A
100
AcDbEntity
  8
in_cut
100
AcDbPolyline
 90
        2
 70
   129
 43
0.0
 10
252.5000000000001
 20
74.7888891321459
 42
0.9999999999999999
 10
257.5000000000001
 20
74.7888891321459
 42
0.9999999999999999
  0
LWPOLYLINE
  5
128E
330
161A
100
AcDbEntity
  8
in_cut
100
AcDbPolyline
 90
        2
 70
   129
 43
0.0
 10
136.4450000000001
 20
29.50343303768101
 42
0.9999999999999999
 10
143.5550000000001
 20
29.50343303768101
 42
0.9999999999999999
  0
LWPOLYLINE
  5
128F
330
161A
100
AcDbEntity
  8
in_cut
100
AcDbPolyline
 90
        2
 70
   129
 43
0.0
 10
51.44499999999999
 20
23.6638891321459
 42
0.9999999999999999
 10
58.55500000000001
 20
23.6638891321459
 42
0.9999999999999999
  0
LWPOLYLINE
  5
1290
330
161A
100
AcDbEntity
  8
in_cut
100
AcDbPolyline
 90
        2
 70
   129
 43
0.0
 10
221.445
 20
23.6638891321459
 42
0.9999999999999999
 10
228.555
 20
23.6638891321459
 42
0.9999999999999999
  0
LWPOLYLINE
  5
1291
330
161A
100
AcDbEntity
  8
in_cut
100
AcDbPolyline
 90
        2
 70
   129
 43
0.0
 10
137.5000000000002
 20
80.37843303768102
 42
0.9999999999999999
 10
142.5000000000002
 20
80.37843303768102
 42
0.9999999999999999
  0
LWPOLYLINE
  5
1292
330
161A
100
AcDbEntity
  8
in_cut
100
AcDbPolyline
 90
        2
 70
   129
 43
0.0
 10
137.5655470581149
 20
15.92908780978081
 42
0.9999999999999999
 10
142.5655470581149
 20
15.92908780978081
 42
0.9999999999999999
  0
LWPOLYLINE
  5
1293
330
161A
100
AcDbEntity
  8
in_cut
100
AcDbPolyline
 90
        2
 70
   129
 43
0.0
 10
223.1099390464679
 20
234.9174587608946
 42
0.9999999999999999
 10
228.1099390464679
 20
234.9174587608946
 42
0.9999999999999999
  0
LWPOLYLINE
  5
1294
330
161A
100
AcDbEntity
  8
in_cut
100
AcDbPolyline
 90
        2
 70
   129
 43
0.0
 10
223.1754861045827
 20
170.4681135329944
 42
0.9999999999999999
 10
228.1754861045827
 20
170.4681135329944
 42
0.9999999999999999
  0
LWPOLYLINE
  5
1295
330
161A
100
AcDbEntity
  8
in_cut
100
AcDbPolyline
 90
        2
 70
   129
 43
0.0
 10
52.5
 20
94.5388891321459
 42
0.9999999999999999
 10
57.5
 20
94.5388891321459
 42
0.9999999999999999
  0
LWPOLYLINE
  5
1296
330
161A
100
AcDbEntity
  8
in_cut
100
AcDbPolyline
 90
        2
 70
   129
 43
0.0
 10
222.5
 20
94.5388891321459
 42
0.9999999999999999
 10
227.5
 20
94.5388891321459
 42
0.9999999999999999
  0
LWPOLYLINE
  5
1297
330
161A
100
AcDbEntity
  8
in_cut
100
AcDbPolyline
 90
        2
 70
   129
 43
0.0
 10
52.5
 20
114.5388891321459
 42
0.9999999999999999
 10
57.5
 20
114.5388891321459
 42
0.9999999999999999
  0
LWPOLYLINE
  5
1298
330
161A
100
AcDbEntity
  8
in_cut
100
AcDbPolyline
 90
        2
 70
   129
 43
0.0
 10
222.5
 20
114.5388891321459
 42
0.9999999999999999
 10
227.5
 20
114.5388891321459
 42
0.9999999999999999
  0
LWPOLYLINE
  5
1299
330
161A
100
AcDbEntity
  8
in_cut
100
AcDbPolyline
 90
        2
 70
   129
 43
0.0
 10
25.5
 20
101.0156375055859
 42
0.9999999999999999
 10
30.5
 20
101.0156375055859
 42
0.9999999999999999
  0
LWPOLYLINE
  5
129A
330
161A
100
AcDbEntity
  8
in_cut
100
AcDbPolyline
 90
        2
 70
   129
 43
0.0
 10
19.73807999999997
 20
95.44751999999991
 42
0.9999999999999999
 10
24.73808
 20
95.44751999999991
 42
0.9999999999999999
  0
LWPOLYLINE
  5
129B
330
161A
100
AcDbEntity
  8
in_cut
100
AcDbPolyline
 90
        2
 70
   129
 43
0.0
 10
85.26191840000001
 20
95.44751999999987
 42
0.9999999999999999
 10
90.26191840000001
 20
95.44751999999987
 42
0.9999999999999999
  0
LWPOLYLINE
  5
129C
330
161A
100
AcDbEntity
  8
in_cut
100
AcDbPolyline
 90
        2
 70
   129
 43
0.0
 10
195.5
 20
101.0156375055859
 42
0.9999999999999999
 10
200.5
 20
101.0156375055859
 42
0.9999999999999999
  0
LWPOLYLINE
  5
129D
330
161A
100
AcDbEntity
  8
in_cut
100
AcDbPolyline
 90
        2
 70
   129
 43
0.0
 10
189.73808
 20
95.44751999999991
 42
0.9999999999999999
 10
194.73808
 20
95.44751999999991
 42
0.9999999999999999
  0
LWPOLYLINE
  5
129E
330
161A
100
AcDbEntity
  8
in_cut
100
AcDbPolyline
 90
        2
 70
   129
 43
0.0
 10
255.2619184
 20
95.44751999999987
 42
0.9999999999999999
 10
260.2619184
 20
95.44751999999987
 42
0.9999999999999999
  0
LWPOLYLINE
  5
129F
330
161A
100
AcDbEntity
  8
in_cut
100
AcDbPolyline
 90
        2
 70
   129
 43
0.0
 10
79.5
 20
101.015637505586
 42
0.9999999999999999
 10
84.5
 20
101.015637505586
 42
0.9999999999999999
  0
LWPOLYLINE
  5
12A0
330
161A
100
AcDbEntity
  8
in_cut
100
AcDbPolyline
 90
        2
 70
   129
 43
0.0
 10
249.5
 20
101.015637505586
 42
0.9999999999999999
 10
254.5
 20
101.015637505586
 42
0.9999999999999999
  0
LWPOLYLINE
  5
12A1
330
161A
100
AcDbEntity
  8
out_cut
100
AcDbPolyline
 90
       36
 70
   129
 43
0.0
 10
165.7690610787243
 20
25.9951851888638
 42
-0.1566015495754808
 10
165.3952365204938
 20
27.159467480705
 10
165.3952359086791
 20
42.5615163872437
 10
170.4104049251196
 20
42.561516586461
 10
170.4104050045655
 20
40.561516586461
 10
173.4104050045655
 20
40.5615167056299
 10
173.4104046867819
 20
48.56151670562991
 10
170.4104046867819
 20
48.5615165864611
 10
170.4104047662278
 20
46.56151658646098
 10
165.3952357497873
 20
46.56151638724378
 10
165.3952354717266
 20
53.56151638724376
 10
170.4104055999999
 20
53.56151498124075
 10
170.4104055999999
 20
81.57091219021908
 42
0.4142135623730963
 10
160.4104055999998
 20
91.57091219021913
 10
119.5895944
 20
91.57091219021902
 42
0.414213562373095
 10
109.5895944
 20
81.57091219021902
 10
109.5895944
 20
53.56151498124072
 10
114.6047645282734
 20
53.56151638724376
 10
114.6047642502127
 20
46.5615163872438
 10
109.5895952337722
 20
46.56151658646098
 10
109.5895953132181
 20
48.5615165864611
 10
106.5895953132181
 20
48.56151670562991
 10
106.5895949954346
 20
40.5615167056299
 10
109.5895949954346
 20
40.561516586461
 10
109.5895950748805
 20
42.561516586461
 10
114.604764091321
 20
42.5615163872438
 10
114.6047634795062
 20
27.1594674839277
 42
-0.1566015491627398
 10
114.2309389212757
 20
25.9951851888637
 42
1.155230713170964
 10
127.5910271024738
 20
19.0811983837322
 42
-0.5496908278440789
 10
130.8777838865682
 20
19.85711395075521
 10
131.0595407467221
 20
19.67967320110191
 42
-0.2056372170417478
 10
132.5662639513773
 20
16.03278392832041
 42
1.014270395747945
 10
147.5647573804947
 20
16.03792043684871
 42
-0.2050721095831976
 10
149.061235735005
 20
19.6782513935315
 10
149.1492807275917
 20
19.7646977390789
 42
-0.5474429978779423
 10
152.4336278873619
 20
19.0111967236091
 42
1.149547270388063
  0
LWPOLYLINE
  5
12A2
330
161A
100
AcDbEntity
  8
out_cut
100
AcDbPolyline
 90
       16
 70
   129
 43
0.0
 10
251.005175594133
 20
181.0144785905253
 10
251.0051739317465
 20
222.8639988768578
 42
-0.1829719131612081
 10
253.5127592891073
 20
229.4869685776466
 42
0.6461573742742607
 10
246.0203446464679
 20
246.1099379134327
 10
205.199533446468
 20
246.1099379134326
 42
0.6461573742742645
 10
197.7071188038287
 20
229.4869685776464
 42
-0.1829719127448819
 10
200.2147041611894
 20
222.8639988607443
 10
200.2147024988031
 20
181.0144785905253
 42
1.203094617665693
 10
213.2009661489417
 20
173.6202241069458
 42
-0.5496908278440705
 10
216.4877229330362
 20
174.3961396739688
 10
216.6694797931898
 20
174.2186989243157
 42
-0.2056372170417471
 10
218.176202997845
 20
170.5718096515341
 42
1.01427039574795
 10
233.1746964269623
 20
170.5769461600622
 42
-0.2050721095831968
 10
234.6711747814729
 20
174.2172771167449
 10
234.7592197740597
 20
174.3037234622925
 42
-0.5474429978779347
 10
238.0435669338298
 20
173.5502224468227
 42
1.197137067855483
  0
LWPOLYLINE
  5
12A3
330
161A
100
AcDbEntity
  8
out_cut
100
AcDbPolyline
 90
       40
 70
   129
 43
0.0
 10
11.589593458487
 20
62.72197002927773
 10
11.58959365133069
 20
54.72197002927773
 10
14.58959365133069
 20
54.72197010159411
 10
14.58959360311968
 20
56.72197010159411
 10
19.60476261956023
 20
56.72197022248706
 10
19.6047627882985
 20
49.72197022248706
 10
14.58959440000001
 20
49.72197010159411
 10
14.58959440000001
 20
34.80023705463989
 10
47.61756127599151
 20
12.31910648270261
 42
0.2993510787585406
 10
62.51353284023821
 20
12.31910648270261
 10
95.4104055999999
 20
34.80023705463979
 10
95.4104024925177
 20
49.72197010159417
 10
90.39523721170161
 20
49.72197022248704
 10
90.3952373804398
 20
56.72197022248703
 10
95.41040639688029
 20
56.72197010159408
 10
95.41040634866931
 20
54.72197010159408
 10
98.41040634866931
 20
54.7219700292777
 10
98.410406541513
 20
62.7219700292777
 10
95.410406541513
 20
62.72197010159408
 10
95.41040649330199
 20
60.72197010159411
 10
90.39523747686161
 20
60.72197022248706
 10
90.39523764559979
 20
67.72197022248704
 10
95.4104055999999
 20
67.72197010159414
 10
95.4104055999999
 20
85.7313682846839
 42
0.1989123673796569
 10
89.55254122373091
 20
99.87350390841479
 10
84.8748700940672
 20
104.5511734380787
 42
-0.1989123673796543
 10
83.410404
 20
108.0867073440113
 10
83.410404
 20
124.731368284684
 10
64.2512813911255
 20
145.8166319536419
 42
0.4425142692040374
 10
45.74871895345359
 20
145.8166323425489
 10
26.5895944000001
 20
124.7313682846839
 10
26.5895944000001
 20
108.0867073440113
 42
-0.1989123673796621
 10
25.1251283059328
 20
104.5511734380786
 10
20.44745877626906
 20
99.8735039084149
 42
0.1989123673796586
 10
14.58959440000001
 20
85.73136828468392
 10
14.58959440000001
 20
67.72197010159414
 10
19.60476235440024
 20
67.72197022248706
 10
19.60476252313839
 20
60.72197022248706
 10
14.5895935066979
 20
60.72197010159411
 10
14.589593458487
 20
62.72197010159411
  0
LWPOLYLINE
  5
12A4
330
161A
100
AcDbEntity
  8
in_cut
100
AcDbPolyline
 90
        2
 70
   129
 43
0.0
 10
368.8644311049948
 20
82.22141043723221
 42
0.9999999999999999
 10
373.3644311049948
 20
82.22141043723221
 42
0.9999999999999999
  0
LWPOLYLINE
  5
12A5
330
161A
100
AcDbEntity
  8
out_cut
100
AcDbPolyline
 90
       40
 70
   129
 43
0.0
 10
181.589593458487
 20
62.72197002927773
 10
181.5895936513307
 20
54.72197002927773
 10
184.5895936513307
 20
54.72197010159411
 10
184.5895936031197
 20
56.72197010159411
 10
189.6047626195602
 20
56.72197022248706
 10
189.6047627882985
 20
49.72197022248706
 10
184.5895944
 20
49.72197010159411
 10
184.5895944
 20
34.80023705463989
 10
217.6175612759915
 20
12.31910648270261
 42
0.2993510787585401
 10
232.5135328402382
 20
12.31910648270261
 10
265.4104055999999
 20
34.80023705463979
 10
265.4104024925178
 20
49.72197010159417
 10
260.3952372117016
 20
49.72197022248704
 10
260.3952373804398
 20
56.72197022248703
 10
265.4104063968803
 20
56.72197010159408
 10
265.4104063486693
 20
54.72197010159408
 10
268.4104063486693
 20
54.7219700292777
 10
268.410406541513
 20
62.7219700292777
 10
265.410406541513
 20
62.72197010159408
 10
265.4104064933021
 20
60.72197010159411
 10
260.3952374768616
 20
60.72197022248706
 10
260.3952376455998
 20
67.72197022248704
 10
265.4104055999999
 20
67.72197010159414
 10
265.4104055999999
 20
85.73136828468398
 42
0.1989123673796555
 10
259.5525412237309
 20
99.87350390841479
 10
254.8748700940672
 20
104.5511734380787
 42
-0.1989123673796535
 10
253.410404
 20
108.0867073440114
 10
253.410404
 20
124.731368284684
 10
234.2512813911254
 20
145.8166319536419
 42
0.4425142692040379
 10
215.7487189534536
 20
145.8166323425489
 10
196.5895944000001
 20
124.7313682846839
 10
196.5895944000001
 20
108.0867073440113
 42
-0.1989123673796621
 10
195.1251283059328
 20
104.5511734380786
 10
190.4474587762691
 20
99.87350390841488
 42
0.1989123673796593
 10
184.5895944
 20
85.73136828468387
 10
184.5895944
 20
67.72197010159414
 10
189.6047623544002
 20
67.72197022248706
 10
189.6047625231384
 20
60.72197022248706
 10
184.5895935066979
 20
60.72197010159411
 10
184.589593458487
 20
62.72197010159411
  0
LWPOLYLINE
  5
12A6
330
161A
100
AcDbEntity
  8
in_cut
100
AcDbPolyline
 90
        4
 70
   129
 43
0.0
 10
33.99999919999999
 20
84.5388883321459
 10
33.99999919999999
 20
80.0388883321459
 10
75.9999991999999
 20
80.0388883321459
 10
75.9999991999999
 20
84.5388883321459
  0
LWPOLYLINE
  5
12A7
330
161A
100
AcDbEntity
  8
in_cut
100
AcDbPolyline
 90
        2
 70
   129
 43
0.0
 10
368.8644311049948
 20
51.22141043723221
 42
0.9999999999999999
 10
373.3644311049948
 20
51.22141043723221
 42
0.9999999999999999
  0
LWPOLYLINE
  5
12A8
330
161A
100
AcDbEntity
  8
in_cut
100
AcDbPolyline
 90
        4
 70
   129
 43
0.0
 10
203.9999992
 20
84.5388883321459
 10
203.9999992
 20
80.0388883321459
 10
245.9999991999999
 20
80.0388883321459
 10
245.9999991999999
 20
84.5388883321459
  0
LWPOLYLINE
  5
12A9
330
161A
100
AcDbEntity
  8
in_cut
100
AcDbPolyline
 90
        4
 70
   129
 43
0.0
 10
130.501264293144
 20
67.62424889047404
 42
0.9999999999999999
 10
127.001264293144
 20
67.62424889047404
 10
127.001264293144
 20
61.62424889047404
 42
0.9999999999999999
 10
130.501264293144
 20
61.62424889047404
  0
LWPOLYLINE
  5
12AA
330
161A
100
AcDbEntity
  8
in_cut
100
AcDbPolyline
 90
        4
 70
   129
 43
0.0
 10
35.501264293144
 20
61.7847049849389
 42
0.9999999999999999
 10
32.001264293144
 20
61.7847049849389
 10
32.001264293144
 20
55.7847049849389
 42
0.9999999999999999
 10
35.501264293144
 20
55.7847049849389
  0
LWPOLYLINE
  5
12AB
330
161A
100
AcDbEntity
  8
in_cut
100
AcDbPolyline
 90
        4
 70
   129
 43
0.0
 10
205.501264293144
 20
61.7847049849389
 42
0.9999999999999999
 10
202.001264293144
 20
61.7847049849389
 10
202.001264293144
 20
55.7847049849389
 42
0.9999999999999999
 10
205.501264293144
 20
55.7847049849389
  0
LWPOLYLINE
  5
12AC
330
161A
100
AcDbEntity
  8
in_cut
100
AcDbPolyline
 90
        4
 70
   129
 43
0.0
 10
122.501264293144
 20
67.62424889047404
 42
0.9999999999999999
 10
119.001264293144
 20
67.62424889047404
 10
119.001264293144
 20
61.62424889047404
 42
0.9999999999999999
 10
122.501264293144
 20
61.62424889047404
  0
LWPOLYLINE
  5
12AD
330
161A
100
AcDbEntity
  8
in_cut
100
AcDbPolyline
 90
        4
 70
   129
 43
0.0
 10
27.501264293144
 20
61.7847049849389
 42
0.9999999999999999
 10
24.001264293144
 20
61.7847049849389
 10
24.001264293144
 20
55.7847049849389
 42
0.9999999999999999
 10
27.501264293144
 20
55.7847049849389
  0
LWPOLYLINE
  5
12AE
330
161A
100
AcDbEntity
  8
in_cut
100
AcDbPolyline
 90
        4
 70
   129
 43
0.0
 10
197.501264293144
 20
61.7847049849389
 42
0.9999999999999999
 10
194.001264293144
 20
61.7847049849389
 10
194.001264293144
 20
55.7847049849389
 42
0.9999999999999999
 10
197.501264293144
 20
55.7847049849389
  0
LWPOLYLINE
  5
12AF
330
161A
100
AcDbEntity
  8
in_cut
100
AcDbPolyline
 90
        4
 70
   129
 43
0.0
 10
149.501264293144
 20
61.62424889047404
 42
0.9999999999999999
 10
153.001264293144
 20
61.62424889047404
 10
153.001264293144
 20
67.62424889047404
 42
0.9999999999999999
 10
149.501264293144
 20
67.62424889047404
  0
LWPOLYLINE
  5
12B0
330
161A
100
AcDbEntity
  8
in_cut
100
AcDbPolyline
 90
        4
 70
   129
 43
0.0
 10
74.501264293144
 20
55.7847049849389
 42
0.9999999999999999
 10
78.001264293144
 20
55.7847049849389
 10
78.001264293144
 20
61.7847049849389
 42
0.9999999999999999
 10
74.501264293144
 20
61.7847049849389
  0
LWPOLYLINE
  5
12B1
330
161A
100
AcDbEntity
  8
in_cut
100
AcDbPolyline
 90
        4
 70
   129
 43
0.0
 10
244.501264293144
 20
55.7847049849389
 42
0.9999999999999999
 10
248.001264293144
 20
55.7847049849389
 10
248.001264293144
 20
61.7847049849389
 42
0.9999999999999999
 10
244.501264293144
 20
61.7847049849389
  0
LWPOLYLINE
  5
12B2
330
161A
100
AcDbEntity
  8
in_cut
100
AcDbPolyline
 90
        4
 70
   129
 43
0.0
 10
157.501264293144
 20
61.62424889047404
 42
0.9999999999999999
 10
161.001264293144
 20
61.62424889047404
 10
161.001264293144
 20
67.62424889047404
 42
0.9999999999999999
 10
157.501264293144
 20
67.62424889047404
  0
LWPOLYLINE
  5
12B3
330
161A
100
AcDbEntity
  8
in_cut
100
AcDbPolyline
 90
        4
 70
   129
 43
0.0
 10
82.501264293144
 20
55.7847049849389
 42
0.9999999999999999
 10
86.001264293144
 20
55.7847049849389
 10
86.001264293144
 20
61.7847049849389
 42
0.9999999999999999
 10
82.501264293144
 20
61.7847049849389
  0
LWPOLYLINE
  5
12B4
330
161A
100
AcDbEntity
  8
in_cut
100
AcDbPolyline
 90
        4
 70
   129
 43
0.0
 10
252.501264293144
 20
55.7847049849389
 42
0.9999999999999999
 10
256.001264293144
 20
55.7847049849389
 10
256.001264293144
 20
61.7847049849389
 42
0.9999999999999999
 10
252.501264293144
 20
61.7847049849389
  0
LWPOLYLINE
  5
12B5
330
161A
100
AcDbEntity
  8
in_cut
100
AcDbPolyline
 90
        4
 70
   129
 43
0.0
 10
122.501264293144
 20
47.62424889047406
 42
0.9999999999999999
 10
119.001264293144
 20
47.62424889047406
 10
119.001264293144
 20
41.62424889047399
 42
0.9999999999999999
 10
122.501264293144
 20
41.62424889047399
  0
LWPOLYLINE
  5
12B6
330
161A
100
AcDbEntity
  8
in_cut
100
AcDbPolyline
 90
        4
 70
   129
 43
0.0
 10
27.501264293144
 20
41.7847049849389
 42
0.9999999999999999
 10
24.001264293144
 20
41.7847049849389
 10
24.001264293144
 20
35.7847049849389
 42
0.9999999999999999
 10
27.501264293144
 20
35.7847049849389
  0
LWPOLYLINE
  5
12B7
330
161A
100
AcDbEntity
  8
in_cut
100
AcDbPolyline
 90
        4
 70
   129
 43
0.0
 10
197.501264293144
 20
41.7847049849389
 42
0.9999999999999999
 10
194.001264293144
 20
41.7847049849389
 10
194.001264293144
 20
35.7847049849389
 42
0.9999999999999999
 10
197.501264293144
 20
35.7847049849389
  0
LWPOLYLINE
  5
12B8
330
161A
100
AcDbEntity
  8
in_cut
100
AcDbPolyline
 90
        4
 70
   129
 43
0.0
 10
130.501264293144
 20
47.62424889047404
 42
0.9999999999999999
 10
127.001264293144
 20
47.62424889047404
 10
127.001264293144
 20
41.62424889047399
 42
0.9999999999999999
 10
130.501264293144
 20
41.62424889047399
  0
LWPOLYLINE
  5
12B9
330
161A
100
AcDbEntity
  8
in_cut
100
AcDbPolyline
 90
        2
 70
   129
 43
0.0
 10
333.5900000000001
 20
252.0000000000001
 42
0.9999999999999999
 10
338.5900000000001
 20
252.0000000000001
 42
0.9999999999999999
  0
LWPOLYLINE
  5
12BA
330
161A
100
AcDbEntity
  8
in_cut
100
AcDbPolyline
 90
        4
 70
   129
 43
0.0
 10
35.501264293144
 20
41.7847049849389
 42
0.9999999999999999
 10
32.001264293144
 20
41.7847049849389
 10
32.001264293144
 20
35.7847049849389
 42
0.9999999999999999
 10
35.501264293144
 20
35.7847049849389
  0
LWPOLYLINE
  5
12BB
330
161A
100
AcDbEntity
  8
in_cut
100
AcDbPolyline
 90
        4
 70
   129
 43
0.0
 10
205.501264293144
 20
41.7847049849389
 42
0.9999999999999999
 10
202.001264293144
 20
41.7847049849389
 10
202.001264293144
 20
35.7847049849389
 42
0.9999999999999999
 10
205.501264293144
 20
35.7847049849389
  0
LWPOLYLINE
  5
12BC
330
161A
100
AcDbEntity
  8
in_cut
100
AcDbPolyline
 90
        2
 70
   129
 43
0.0
 10
333.5899999999999
 20
212.0000000000001
 42
0.9999999999999999
 10
338.5899999999999
 20
212.0000000000001
 42
0.9999999999999999
  0
LWPOLYLINE
  5
12BD
330
161A
100
AcDbEntity
  8
in_cut
100
AcDbPolyline
 90
        4
 70
   129
 43
0.0
 10
149.501264293144
 20
41.62424889047399
 42
0.9999999999999999
 10
153.001264293144
 20
41.62424889047399
 10
153.001264293144
 20
47.62424889047404
 42
0.9999999999999999
 10
149.501264293144
 20
47.62424889047404
  0
LWPOLYLINE
  5
12BE
330
161A
100
AcDbEntity
  8
in_cut
100
AcDbPolyline
 90
        4
 70
   129
 43
0.0
 10
74.501264293144
 20
35.7847049849389
 42
0.9999999999999999
 10
78.001264293144
 20
35.7847049849389
 10
78.001264293144
 20
41.7847049849389
 42
0.9999999999999999
 10
74.501264293144
 20
41.7847049849389
  0
LWPOLYLINE
  5
12BF
330
161A
100
AcDbEntity
  8
in_cut
100
AcDbPolyline
 90
        2
 70
   129
 43
0.0
 10
301.41
 20
232.0000000000002
 42
0.9999999999999999
 10
308.52
 20
232.0000000000002
 42
0.9999999999999999
  0
LWPOLYLINE
  5
12C0
330
161A
100
AcDbEntity
  8
in_cut
100
AcDbPolyline
 90
        4
 70
   129
 43
0.0
 10
244.501264293144
 20
35.7847049849389
 42
0.9999999999999999
 10
248.001264293144
 20
35.7847049849389
 10
248.001264293144
 20
41.7847049849389
 42
0.9999999999999999
 10
244.501264293144
 20
41.7847049849389
  0
LWPOLYLINE
  5
12C1
330
161A
100
AcDbEntity
  8
in_cut
100
AcDbPolyline
 90
        4
 70
   129
 43
0.0
 10
157.501264293144
 20
41.62424889047399
 42
0.9999999999999999
 10
161.001264293144
 20
41.62424889047399
 10
161.001264293144
 20
47.62424889047404
 42
0.9999999999999999
 10
157.501264293144
 20
47.62424889047404
  0
LWPOLYLINE
  5
12C2
330
161A
100
AcDbEntity
  8
in_cut
100
AcDbPolyline
 90
        4
 70
   129
 43
0.0
 10
82.501264293144
 20
35.7847049849389
 42
0.9999999999999999
 10
86.001264293144
 20
35.7847049849389
 10
86.001264293144
 20
41.7847049849389
 42
0.9999999999999999
 10
82.501264293144
 20
41.7847049849389
  0
LWPOLYLINE
  5
12C3
330
161A
100
AcDbEntity
  8
in_cut
100
AcDbPolyline
 90
        4
 70
   129
 43
0.0
 10
252.501264293144
 20
35.7847049849389
 42
0.9999999999999999
 10
256.001264293144
 20
35.7847049849389
 10
256.001264293144
 20
41.7847049849389
 42
0.9999999999999999
 10
252.501264293144
 20
41.7847049849389
  0
LWPOLYLINE
  5
12C4
330
161A
100
AcDbEntity
  8
engrave
100
AcDbPolyline
 90
        2
 70
   128
 43
0.0
 10
45.0
 20
136.2007066737109
 10
65.0
 20
116.2007066737108
  0
LWPOLYLINE
  5
12C5
330
161A
100
AcDbEntity
  8
engrave
100
AcDbPolyline
 90
        2
 70
   128
 43
0.0
 10
215.0
 20
136.2007066737109
 10
235.0
 20
116.2007066737108
  0
LWPOLYLINE
  5
12C6
330
161A
100
AcDbEntity
  8
engrave
100
AcDbPolyline
 90
        2
 70
   128
 43
0.0
 10
40.0
 20
210.0
 10
20.0
 20
190.0
  0
LWPOLYLINE
  5
12C7
330
161A
100
AcDbEntity
  8
engrave
100
AcDbPolyline
 90
        2
 70
   128
 43
0.0
 10
330.0
 20
40.0
 10
350.0
 20
20.0
  0
LWPOLYLINE
  5
12C8
330
161A
100
AcDbEntity
  8
engrave
100
AcDbPolyline
 90
        2
 70
   128
 43
0.0
 10
65.0
 20
136.2007066737109
 10
45.0
 20
116.2007066737108
  0
LWPOLYLINE
  5
12C9
330
161A
100
AcDbEntity
  8
engrave
100
AcDbPolyline
 90
        2
 70
   128
 43
0.0
 10
235.0
 20
136.2007066737109
 10
215.0
 20
116.2007066737108
  0
LWPOLYLINE
  5
12CA
330
161A
100
AcDbEntity
  8
engrave
100
AcDbPolyline
 90
        2
 70
   128
 43
0.0
 10
40.0
 20
190.0
 10
20.0
 20
210.0
  0
LWPOLYLINE
  5
12CB
330
161A
100
AcDbEntity
  8
engrave
100
AcDbPolyline
 90
        2
 70
   128
 43
0.0
 10
350.0
 20
40.0
 10
330.0
 20
20.0
  0
LWPOLYLINE
  5
12CC
330
161A
100
AcDbEntity
  8
in_cut
100
AcDbPolyline
 90
        2
 70
   129
 43
0.0
 10
156.9895944
 20
21.5709121902191
 42
0.9999999999999999
 10
162.1895944
 20
21.5709121902191
 42
0.9999999999999999
  0
LWPOLYLINE
  5
12CD
330
161A
100
AcDbEntity
  8
in_cut
100
AcDbPolyline
 90
        2
 70
   129
 43
0.0
 10
117.8104056
 20
21.5709121902191
 42
0.9999999999999999
 10
123.0104056
 20
21.5709121902191
 42
0.9999999999999999
  0
LWPOLYLINE
  5
12CE
330
161A
100
AcDbEntity
  8
in_cut
100
AcDbPolyline
 90
        2
 70
   129
 43
0.0
 10
242.599533446468
 20
176.1099379134326
 42
0.9999999999999999
 10
247.799533446468
 20
176.1099379134326
 42
0.9999999999999999
  0
LWPOLYLINE
  5
12CF
330
161A
100
AcDbEntity
  8
in_cut
100
AcDbPolyline
 90
        2
 70
   129
 43
0.0
 10
203.420344646468
 20
176.1099379134326
 42
0.9999999999999999
 10
208.620344646468
 20
176.1099379134326
 42
0.9999999999999999
  0
LWPOLYLINE
  5
12D0
330
161A
100
AcDbEntity
  8
in_cut
100
AcDbPolyline
 90
        2
 70
   129
 43
0.0
 10
233.8599390464679
 20
217.3099379134327
 42
0.9999999999999999
 10
237.3599390464679
 20
217.3099379134327
 42
0.9999999999999999
  0
LWPOLYLINE
  5
12D1
330
161A
100
AcDbEntity
  8
in_cut
100
AcDbPolyline
 90
        2
 70
   129
 43
0.0
 10
223.8599390464679
 20
217.3099379134327
 42
0.9999999999999999
 10
227.3599390464679
 20
217.3099379134327
 42
0.9999999999999999
  0
LWPOLYLINE
  5
12D2
330
161A
100
AcDbEntity
  8
in_cut
100
AcDbPolyline
 90
        2
 70
   129
 43
0.0
 10
213.8599390464679
 20
217.3099379134327
 42
0.9999999999999999
 10
217.3599390464679
 20
217.3099379134327
 42
0.9999999999999999
  0
LWPOLYLINE
  5
12D3
330
161A
100
AcDbEntity
  8
in_cut
100
AcDbPolyline
 90
        4
 70
   129
 43
0.0
 10
75.9420858274398
 20
223.3011248186755
 10
69.9420858274398
 20
223.3011248186756
 42
0.9999999999999999
 10
69.9420858274398
 20
219.8011248186754
 10
75.9420858274398
 20
219.8011248186754
 42
0.9999999999999999
  0
LWPOLYLINE
  5
12D4
330
161A
100
AcDbEntity
  8
out_cut
100
AcDbPolyline
 90
       26
 70
   129
 43
0.0
 10
349.0000000000001
 20
85.00000000000006
 10
292.0000000000001
 20
85.00000000000006
 10
292.0000000000001
 20
81.25000000000006
 10
288.0
 20
81.25000000000006
 10
288.0000000000001
 20
75.25000000000561
 10
292.0000000000001
 20
75.2500000000028
 10
292.0000000000001
 20
71.70000000000005
 10
295.1500000000001
 20
71.70000000000006
 10
295.1500000000003
 20
73.75000000000006
 10
298.2500000000001
 20
73.75000000000004
 10
300.7500000000001
 20
72.75000000000001
 10
306.7500000000001
 20
72.75000000000033
 42
-0.9999999999999999
 10
306.7500000000001
 20
67.25000000000016
 10
300.7500000000001
 20
67.25000000000006
 10
298.2500000000002
 20
66.25000000000009
 10
295.1500000000002
 20
66.25000000000004
 10
295.1500000000002
 20
68.30000000000011
 10
292.0000000000001
 20
68.3000000000001
 10
292.0000000000001
 20
64.75000000000004
 10
288.0000000000002
 20
64.75000000000004
 10
288.0000000000001
 20
58.75000000000004
 10
292.0000000000001
 20
58.75000000000004
 10
292.0000000000001
 20
55.00000000000007
 10
349.0000000000001
 20
55.00000000000007
 42
0.414213562373095
 10
352.0000000000001
 20
58.00000000000007
 10
352.0000000000001
 20
82.00000000000006
 42
0.414213562373095
  0
LWPOLYLINE
  5
12D5
330
161A
100
AcDbEntity
  8
in_cut
100
AcDbPolyline
 90
        2
 70
   129
 43
0.0
 10
223.8599390464679
 20
207.3099379134327
 42
0.9999999999999999
 10
227.3599390464679
 20
207.3099379134327
 42
0.9999999999999999
  0
LWPOLYLINE
  5
12D6
330
161A
100
AcDbEntity
  8
in_cut
100
AcDbPolyline
 90
        2
 70
   129
 43
0.0
 10
233.8599390464679
 20
197.3099379134327
 42
0.9999999999999999
 10
237.3599390464679
 20
197.3099379134327
 42
0.9999999999999999
  0
LWPOLYLINE
  5
12D7
330
161A
100
AcDbEntity
  8
in_cut
100
AcDbPolyline
 90
        4
 70
   129
 43
0.0
 10
75.9420858274398
 20
208.3011248186755
 10
69.9420858274398
 20
208.3011248186755
 42
0.9999999999999999
 10
69.9420858274398
 20
204.8011248186754
 10
75.9420858274398
 20
204.8011248186754
 42
0.9999999999999999
  0
LWPOLYLINE
  5
12D8
330
161A
100
AcDbEntity
  8
in_cut
100
AcDbPolyline
 90
        2
 70
   129
 43
0.0
 10
223.8599390464679
 20
197.3099379134327
 42
0.9999999999999999
 10
227.3599390464679
 20
197.3099379134327
 42
0.9999999999999999
  0
LWPOLYLINE
  5
12D9
330
161A
100
AcDbEntity
  8
in_cut
100
AcDbPolyline
 90
        2
 70
   129
 43
0.0
 10
213.8599390464679
 20
197.3099379134327
 42
0.9999999999999999
 10
217.3599390464679
 20
197.3099379134327
 42
0.9999999999999999
  0
LWPOLYLINE
  5
12DA
330
161A
100
AcDbEntity
  8
in_cut
100
AcDbPolyline
 90
        2
 70
   129
 43
0.0
 10
213.8599390464679
 20
207.3099379134327
 42
0.9999999999999999
 10
217.3599390464679
 20
207.3099379134327
 42
0.9999999999999999
  0
LWPOLYLINE
  5
12DB
330
161A
100
AcDbEntity
  8
in_cut
100
AcDbPolyline
 90
        2
 70
   129
 43
0.0
 10
233.8599390464679
 20
207.3099379134327
 42
0.9999999999999999
 10
237.3599390464679
 20
207.3099379134327
 42
0.9999999999999999
  0
LWPOLYLINE
  5
12DC
330
161A
100
AcDbEntity
  8
in_cut
100
AcDbPolyline
 90
        2
 70
   129
 43
0.0
 10
243.8599390464679
 20
207.3099379134327
 42
0.9999999999999999
 10
247.3599390464679
 20
207.3099379134327
 42
0.9999999999999999
  0
LWPOLYLINE
  5
12DD
330
161A
100
AcDbEntity
  8
in_cut
100
AcDbPolyline
 90
        2
 70
   129
 43
0.0
 10
203.859939046468
 20
207.3099379134327
 42
0.9999999999999999
 10
207.359939046468
 20
207.3099379134327
 42
0.9999999999999999
  0
LWPOLYLINE
  5
12DE
330
161A
100
AcDbEntity
  8
in_cut
100
AcDbPolyline
 90
        2
 70
   129
 43
0.0
 10
203.859939046468
 20
197.3099379134327
 42
0.9999999999999999
 10
207.359939046468
 20
197.3099379134327
 42
0.9999999999999999
  0
LWPOLYLINE
  5
12DF
330
161A
100
AcDbEntity
  8
in_cut
100
AcDbPolyline
 90
        2
 70
   129
 43
0.0
 10
203.859939046468
 20
217.3099379134327
 42
0.9999999999999999
 10
207.359939046468
 20
217.3099379134327
 42
0.9999999999999999
  0
LWPOLYLINE
  5
12E0
330
161A
100
AcDbEntity
  8
in_cut
100
AcDbPolyline
 90
        2
 70
   129
 43
0.0
 10
243.8599390464679
 20
217.3099379134327
 42
0.9999999999999999
 10
247.3599390464679
 20
217.3099379134327
 42
0.9999999999999999
  0
LWPOLYLINE
  5
12E1
330
161A
100
AcDbEntity
  8
in_cut
100
AcDbPolyline
 90
        2
 70
   129
 43
0.0
 10
243.8599390464679
 20
197.3099379134327
 42
0.9999999999999999
 10
247.3599390464679
 20
197.3099379134327
 42
0.9999999999999999
  0
LWPOLYLINE
  5
12E2
330
161A
100
AcDbEntity
  8
engrave
100
AcDbPolyline
 90
        3
 70
   128
 43
0.0
 10
134.5895944
 20
66.57091219021908
 10
139.5895943994181
 20
61.57091219021908
 10
144.5895944
 20
66.57091219021908
  0
LWPOLYLINE
  5
12E3
330
161A
100
AcDbEntity
  8
engrave
100
AcDbPolyline
 90
        3
 70
   128
 43
0.0
 10
128.367177634061
 20
253.0299003704699
 10
133.3671776334791
 20
248.0299003704699
 10
138.367177634061
 20
253.0299003704699
  0
LWPOLYLINE
  5
12E4
330
161A
100
AcDbEntity
  8
engrave
100
AcDbPolyline
 90
        3
 70
   128
 43
0.0
 10
220.7276622210153
 20
192.5370207516595
 10
225.7276622204335
 20
187.5370207516595
 10
230.7276622210153
 20
192.5370207516595
  0
LWPOLYLINE
  5
12E5
330
161A
100
AcDbEntity
  8
engrave
100
AcDbPolyline
 90
        2
 70
   128
 43
0.0
 10
139.5895943994181
 20
61.57091219021908
 10
139.5895944001759
 20
51.57091219021908
  0
LWPOLYLINE
  5
12E6
330
161A
100
AcDbEntity
  8
engrave
100
AcDbPolyline
 90
        2
 70
   128
 43
0.0
 10
133.3671776334791
 20
248.0299003704699
 10
133.3671776342369
 20
238.0299003704699
  0
LWPOLYLINE
  5
12E7
330
161A
100
AcDbEntity
  8
engrave
100
AcDbPolyline
 90
        2
 70
   128
 43
0.0
 10
225.7276622204335
 20
187.5370207516595
 10
225.7276622211912
 20
177.5370207516595
  0
LWPOLYLINE
  5
12E8
330
161A
100
AcDbEntity
  8
pocket
100
AcDbPolyline
 90
        2
 70
   129
 43
0.0
 10
240.6099390464681
 20
235.1674587608946
 42
0.9999999999999999
 10
250.6099390464681
 20
235.1674587608946
 42
0.9999999999999999
  0
LWPOLYLINE
  5
12E9
330
161A
100
AcDbEntity
  8
pocket
100
AcDbPolyline
 90
        2
 70
   129
 43
0.0
 10
240.1995334464679
 20
176.1099379134326
 42
0.9999999999999999
 10
250.1995334464679
 20
176.1099379134326
 42
0.9999999999999999
  0
LWPOLYLINE
  5
12EA
330
161A
100
AcDbEntity
  8
pocket
100
AcDbPolyline
 90
        2
 70
   129
 43
0.0
 10
201.020344646468
 20
176.1099379134326
 42
0.9999999999999999
 10
211.020344646468
 20
176.1099379134326
 42
0.9999999999999999
  0
LWPOLYLINE
  5
12EB
330
161A
100
AcDbEntity
  8
in_cut
100
AcDbPolyline
 90
        2
 70
   129
 43
0.0
 10
164.8365047662896
 20
208.6406772460625
 42
0.9999999999999999
 10
169.8365047662896
 20
208.6406772460625
 42
0.9999999999999999
  0
LWPOLYLINE
  5
12EC
330
161A
100
AcDbEntity
  8
in_cut
100
AcDbPolyline
 90
        2
 70
   129
 43
0.0
 10
51.15270286306179
 20
176.0511832551055
 42
0.9999999999999999
 10
56.15270286306179
 20
176.0511832551055
 42
0.9999999999999999
  0
LWPOLYLINE
  5
12ED
330
161A
100
AcDbEntity
  8
in_cut
100
AcDbPolyline
 90
        2
 70
   129
 43
0.0
 10
52.49999999999989
 20
137.4104560944649
 42
0.9999999999999999
 10
57.49999999999989
 20
137.4104560944649
 42
0.9999999999999999
  0
LWPOLYLINE
  5
12EE
330
161A
100
AcDbEntity
  8
in_cut
100
AcDbPolyline
 90
        2
 70
   129
 43
0.0
 10
222.4999999999999
 20
137.4104560944649
 42
0.9999999999999999
 10
227.4999999999999
 20
137.4104560944649
 42
0.9999999999999999
  0
LWPOLYLINE
  5
12EF
330
161A
100
AcDbEntity
  8
pocket
100
AcDbPolyline
 90
        2
 70
   129
 43
0.0
 10
200.6099390464681
 20
235.1674587608946
 42
0.9999999999999999
 10
210.6099390464681
 20
235.1674587608946
 42
0.9999999999999999
  0
LWPOLYLINE
  5
12F0
330
161A
100
AcDbEntity
  8
out_cut
100
AcDbPolyline
 90
       22
 70
   129
 43
0.0
 10
199.8365047662897
 20
163.6406772460625
 10
197.3365047662896
 20
163.6406772460625
 42
-0.414213562373095
 10
187.3365047662896
 20
173.6406772460625
 10
187.3365047662896
 20
198.6406772460625
 42
0.414213562373095
 10
177.3365047662896
 20
208.6406772460625
 10
176.6235925767929
 20
208.6406772460625
 42
-0.3533664767746581
 10
174.668416204889
 20
210.2196246164766
 42
0.8075728398358203
 10
160.0045933966509
 20
210.2196248477601
 42
-0.3533664767746713
 10
158.0494169557862
 20
208.6406775440146
 10
157.3365050069077
 20
208.6406775668866
 42
0.4142135623445214
 10
147.3365046860836
 20
198.6406779114871
 10
147.3365041086002
 20
180.6406778922708
 42
-0.4142135630409135
 10
145.3365040444354
 20
178.6406779518755
 10
134.8365040444352
 20
178.6406782887408
 42
0.4142135618293669
 10
129.8365038840231
 20
173.6406784522468
 10
129.8365029978568
 20
146.0191114697332
 42
0.7207592191899849
 10
143.336502853486
 20
141.5191110537214
 42
-0.2360679774997907
 10
147.3365029176508
 20
143.5191109253917
 10
187.3365047662898
 20
143.5191102837436
 42
-0.2360679774997897
 10
191.3365047662898
 20
141.5191102837436
 42
0.7207592200561265
 10
204.8365047662898
 20
146.0191102837436
 10
204.8365047662897
 20
158.6406772460625
 42
0.414213562373095
  0
LWPOLYLINE
  5
12F1
330
161A
100
AcDbEntity
  8
out_cut
100
AcDbPolyline
 90
       22
 70
   129
 43
0.0
 10
98.65270286306179
 20
208.5511832551056
 10
98.65270286306179
 20
206.0511832551055
 42
-0.414213562373095
 10
88.65270286306179
 20
196.0511832551055
 10
63.65270286306179
 20
196.0511832551055
 42
0.4142135623730942
 10
53.65270286306179
 20
186.0511832551055
 10
53.65270286306179
 20
185.33827106774
 42
-0.3533664770743309
 10
52.07375549391611
 20
183.3830946878154
 42
0.8075728398358031
 10
52.07375526012399
 20
168.7192718797078
 42
-0.3533664753733153
 10
53.65270256510971
 20
166.7640954479242
 10
53.65270254223779
 20
166.0511834966991
 42
0.4142135623730925
 10
63.65270219763721
 20
156.0511831748995
 10
81.6527022168535
 20
156.0511825974161
 42
-0.41421356203919
 10
83.65270215724891
 20
154.0511825355314
 10
83.6527018203835
 20
143.5511825425331
 42
0.4142135623730933
 10
88.6527016568775
 20
138.551182372839
 10
116.2742686393911
 20
138.5511814866727
 42
0.7207592191899808
 10
120.774269055403
 20
152.0511813423019
 42
-0.236067977989758
 10
118.7742691837326
 20
156.0511814095607
 10
118.7742698253808
 20
196.0511832551055
 42
-0.2360679774997929
 10
120.7742698253808
 20
200.0511832551055
 42
0.7207592200561265
 10
116.2742698253809
 20
213.5511832551055
 10
103.6527028630618
 20
213.5511832551056
 42
0.414213562373095
  0
LWPOLYLINE
  5
12F2
330
161A
100
AcDbEntity
  8
in_cut
100
AcDbPolyline
 90
        2
 70
   129
 43
0.0
 10
71.160404
 20
114.7313682846839
 42
0.9999999999999999
 10
75.660404
 20
114.7313682846839
 42
0.9999999999999999
  0
LWPOLYLINE
  5
12F3
330
161A
100
AcDbEntity
  8
in_cut
100
AcDbPolyline
 90
        2
 70
   129
 43
0.0
 10
241.160404
 20
114.7313682846839
 42
0.9999999999999999
 10
245.660404
 20
114.7313682846839
 42
0.9999999999999999
  0
LWPOLYLINE
  5
12F4
330
161A
100
AcDbEntity
  8
in_cut
100
AcDbPolyline
 90
        2
 70
   129
 43
0.0
 10
34.3395944000001
 20
114.7313682846839
 42
0.9999999999999999
 10
38.8395944000001
 20
114.7313682846839
 42
0.9999999999999999
  0
LWPOLYLINE
  5
12F5
330
161A
100
AcDbEntity
  8
in_cut
100
AcDbPolyline
 90
        2
 70
   129
 43
0.0
 10
204.3395944000001
 20
114.7313682846839
 42
0.9999999999999999
 10
208.8395944000001
 20
114.7313682846839
 42
0.9999999999999999
  0
LWPOLYLINE
  5
12F6
330
161A
100
AcDbEntity
  8
out_cut
100
AcDbPolyline
 90
       19
 70
   129
 43
0.0
 10
300.5274999999999
 20
175.5000000000002
 10
340.5274999999999
 20
175.5
 42
0.414213562373095
 10
347.0274999999999
 20
182.0
 10
347.0275000000002
 20
204.7718540586127
 42
-0.1068504239915121
 10
347.4739285714286
 20
206.8370386132946
 42
0.4225285317914368
 10
340.9287096774193
 20
223.5254886515779
 42
-0.3020417235551663
 10
339.0899999999999
 20
226.2916059279567
 10
339.0899999999999
 20
237.7083940720436
 42
-0.3020417235551662
 10
340.9287096774193
 20
240.4745113484223
 42
0.302041723555169
 10
348.5900000000001
 20
252.0000000000001
 42
0.7342378347435774
 10
325.8318524168964
 20
259.1428571428573
 42
-0.2453926839566119
 10
321.7285933836549
 20
257.0000000000002
 10
309.9649999999999
 20
257.0000000000002
 42
0.414213562373095
 10
304.9649999999999
 20
252.0000000000002
 10
304.9650000000002
 20
249.8686324322824
 42
-0.3363784439875005
 10
301.3123457289139
 20
245.0535873144482
 42
0.4940697663885026
 10
293.3221645109135
 20
225.0586451773401
 42
-0.1352187249394451
 10
294.0274999999999
 20
222.4982044460011
 10
294.0274999999999
 20
182.0000000000002
 42
0.414213562373095
  0
LWPOLYLINE
  5
12F7
330
161A
100
AcDbEntity
  8
pocket
100
AcDbPolyline
 90
        2
 70
   129
 43
0.0
 10
331.0899999999999
 20
212.0000000000001
 42
0.9999999999999999
 10
341.0899999999999
 20
212.0000000000001
 42
0.9999999999999999
  0
LWPOLYLINE
  5
12F8
330
161A
100
AcDbEntity
  8
pocket
100
AcDbPolyline
 90
        2
 70
   129
 43
0.0
 10
331.0900000000001
 20
252.0000000000001
 42
0.9999999999999999
 10
341.0900000000001
 20
252.0000000000001
 42
0.9999999999999999
  0
LWPOLYLINE
  5
12F9
330
161A
100
AcDbEntity
  8
pocket
100
AcDbPolyline
 90
        2
 70
   129
 43
0.0
 10
298.9649999999999
 20
232.0000000000002
 42
0.9999999999999999
 10
310.9649999999999
 20
232.0000000000002
 42
0.9999999999999999
  0
LWPOLYLINE
  5
12FA
330
161A
100
AcDbEntity
  8
in_cut
100
AcDbPolyline
 90
        2
 70
   129
 43
0.0
 10
135.3365040444353
 20
168.6406772460625
 42
0.9999999999999999
 10
139.8365040444353
 20
168.6406772460625
 42
0.9999999999999999
  0
LWPOLYLINE
  5
12FB
330
161A
100
AcDbEntity
  8
in_cut
100
AcDbPolyline
 90
        2
 70
   129
 43
0.0
 10
91.40270286306179
 20
146.3011825332511
 42
0.9999999999999999
 10
95.90270286306179
 20
146.3011825332511
 42
0.9999999999999999
  0
LWPOLYLINE
  5
12FC
330
161A
100
AcDbEntity
  8
in_cut
100
AcDbPolyline
 90
       26
 70
   129
 43
0.0
 10
175.7365047662896
 20
183.0119520962182
 10
175.7365047662896
 20
188.526268471269
 10
177.5365047619972
 20
190.3262684669766
 10
177.5365049662896
 20
194.2691117787128
 42
0.4142135796452558
 10
175.8365047477203
 20
195.9691117837436
 10
171.8936614538149
 20
195.9691117837436
 10
170.093661453815
 20
194.1691117837437
 10
164.5793464787642
 20
194.1691117837437
 10
162.7793464830566
 20
195.9691117794512
 10
158.8365030980736
 20
195.9691119837436
 42
0.414213576765553
 10
157.1365031662896
 20
194.2691117631933
 10
157.1365031662896
 20
190.3262684191991
 10
158.9365047662896
 20
188.5262684191991
 10
158.9365047662896
 20
183.0119521482881
 10
157.1365031662896
 20
181.2119521482881
 10
157.1365031662896
 20
155.9691094837435
 10
146.1365039662896
 20
155.9691094837435
 10
146.1365039662896
 20
151.0691094837436
 10
157.988464584972
 20
151.0691094837436
 10
160.2483633668395
 20
150.1651499709965
 42
0.1843666905018657
 10
174.5110381556557
 20
149.9388153189329
 10
177.6193471088848
 20
151.0691094837436
 10
188.5365039662896
 20
151.0691094837436
 10
188.5365039662896
 20
155.9691094837435
 10
177.5365047662896
 20
155.9691094837435
 10
177.5365047662896
 20
181.2119520962182
  0
LWPOLYLINE
  5
12FD
330
161A
100
AcDbEntity
  8
in_cut
100
AcDbPolyline
 90
       26
 70
   129
 43
0.0
 10
79.28142801290619
 20
184.4511832551055
 10
73.76711163785541
 20
184.4511832551055
 10
71.96711164214781
 20
186.2511832508131
 10
68.02426833041159
 20
186.2511834551055
 42
0.4142135799821697
 10
66.32426832538081
 20
184.5511832358844
 10
66.32426832538081
 20
180.6083399426308
 10
68.12426832538071
 20
178.8083399426309
 10
68.12426832538071
 20
173.2940249675801
 10
66.32426832967309
 20
171.4940249718725
 10
66.32426812538071
 20
167.5511815881766
 42
0.4142135772829207
 10
68.02426834764671
 20
165.8511816551055
 10
71.96711168992519
 20
165.8511816551055
 10
73.76711168992529
 20
167.6511832551055
 10
79.28142796083631
 20
167.6511832551055
 10
81.0814279608363
 20
165.8511816551055
 10
106.3242706253808
 20
165.8511816551055
 10
106.3242706253808
 20
154.8511824551055
 10
111.2242706253808
 20
154.8511824551055
 10
111.2242706253808
 20
166.7031430737879
 10
112.1282301381279
 20
168.9630418556554
 42
0.1843666905018661
 10
112.3545647901915
 20
183.2257166444716
 10
111.2242706253808
 20
186.3340255977007
 10
111.2242706253808
 20
197.2511824551055
 10
106.3242706253808
 20
197.2511824551055
 10
106.3242706253808
 20
186.2511832551056
 10
81.08142801290609
 20
186.2511832551056
  0
LWPOLYLINE
  5
12FE
330
161A
100
AcDbEntity
  8
in_cut
100
AcDbPolyline
 90
        4
 70
   129
 43
0.0
 10
336.5274999999999
 20
237.2500000000002
 10
332.5274999999999
 20
237.2500000000002
 10
332.5274999999999
 20
243.2500000000002
 10
336.5275000000001
 20
243.2500000000002
  0
LWPOLYLINE
  5
12FF
330
161A
100
AcDbEntity
  8
in_cut
100
AcDbPolyline
 90
        4
 70
   129
 43
0.0
 10
305.1328438267135
 20
154.0785557662479
 10
301.1328438267135
 20
154.0785557662479
 10
301.1328438267135
 20
160.0785557662479
 10
305.1328438267136
 20
160.0785557662479
  0
LWPOLYLINE
  5
1300
330
161A
100
AcDbEntity
  8
in_cut
100
AcDbPolyline
 90
        4
 70
   129
 43
0.0
 10
336.5274999999999
 20
220.7500000000002
 10
332.5275000000001
 20
220.7500000000001
 10
332.5275000000001
 20
226.7500000000002
 10
336.5275000000001
 20
226.7500000000001
  0
LWPOLYLINE
  5
1301
330
161A
100
AcDbEntity
  8
in_cut
100
AcDbPolyline
 90
        4
 70
   129
 43
0.0
 10
305.1328438267135
 20
137.5785557662479
 10
301.1328438267136
 20
137.5785557662478
 10
301.1328438267136
 20
143.5785557662479
 10
305.1328438267136
 20
143.5785557662478
  0
LWPOLYLINE
  5
1302
330
161A
100
AcDbEntity
  8
engrave
100
AcDbPolyline
 90
        4
 70
   128
 43
0.0
 10
310.5274999999999
 20
202.0000000000001
 10
330.5274999999999
 20
202.0000000000002
 10
310.5274999999999
 20
182.0000000000001
 10
330.5274999999999
 20
182.0000000000002
  0
LWPOLYLINE
  5
1303
330
161A
100
AcDbEntity
  8
out_cut
100
AcDbPolyline
 90
       26
 70
   129
 43
0.0
 10
67.4420858274398
 20
215.8011248186754
 10
67.4420858274398
 20
217.8011248186754
 10
64.34208582744
 20
217.8011248186755
 10
64.34208582743969
 20
215.7511248186755
 10
61.1920858274398
 20
215.7511248186754
 10
61.1920858274398
 20
219.3011248186782
 10
57.1920858274398
 20
219.301124818681
 10
57.19208582743971
 20
225.3011248186754
 10
76.9420858274398
 20
225.3011248186757
 42
-0.4142135623730795
 10
80.6920858274398
 20
221.5511248186755
 10
80.6920858274398
 20
206.5511248186754
 42
-0.414213562373095
 10
76.9420858274398
 20
202.8011248186754
 10
57.1920858274398
 20
202.8011248186754
 10
57.19208582743991
 20
208.8011248186754
 10
61.1920858274398
 20
208.8011248186754
 10
61.1920858274398
 20
212.3511248186755
 10
64.34208582743989
 20
212.3511248186755
 10
64.34208582743989
 20
210.3011248186754
 10
67.44208582743991
 20
210.3011248186755
 10
67.44208582743991
 20
212.3011248186754
 10
67.8207654838802
 20
212.3011248186754
 42
0.2238875363520738
 10
69.9420858274398
 20
211.3011248186755
 10
75.9420858274398
 20
211.3011248186756
 42
0.9999999999999999
 10
75.9420858274398
 20
216.8011248186757
 10
69.9420858274398
 20
216.8011248186754
 42
0.2238875363520666
 10
67.82076548388011
 20
215.8011248186754
  0
LWPOLYLINE
  5
1304
330
161A
100
AcDbEntity
  8
drill
100
AcDbPolyline
 90
        2
 70
   129
 43
0.0
 10
298.7774999999999
 20
202.0000000000001
 42
0.9999999999999999
 10
302.2774999999999
 20
202.0000000000001
 42
0.9999999999999999
  0
LWPOLYLINE
  5
1305
330
161A
100
AcDbEntity
  8
drill
100
AcDbPolyline
 90
        2
 70
   129
 43
0.0
 10
308.7774999999999
 20
202.0000000000001
 42
0.9999999999999999
 10
312.2774999999999
 20
202.0000000000001
 42
0.9999999999999999
  0
LWPOLYLINE
  5
1306
330
161A
100
AcDbEntity
  8
drill
100
AcDbPolyline
 90
        2
 70
   129
 43
0.0
 10
308.7774999999999
 20
212.0000000000002
 42
0.9999999999999999
 10
312.2774999999999
 20
212.0000000000002
 42
0.9999999999999999
  0
LWPOLYLINE
  5
1307
330
161A
100
AcDbEntity
  8
drill
100
AcDbPolyline
 90
        2
 70
   129
 43
0.0
 10
318.7774999999999
 20
212.0000000000002
 42
0.9999999999999999
 10
322.2774999999999
 20
212.0000000000002
 42
0.9999999999999999
  0
LWPOLYLINE
  5
1308
330
161A
100
AcDbEntity
  8
drill
100
AcDbPolyline
 90
        2
 70
   129
 43
0.0
 10
318.7775000000001
 20
222.0000000000002
 42
0.9999999999999999
 10
322.2775000000001
 20
222.0000000000002
 42
0.9999999999999999
  0
LWPOLYLINE
  5
1309
330
161A
100
AcDbEntity
  8
drill
100
AcDbPolyline
 90
        2
 70
   129
 43
0.0
 10
318.7775000000001
 20
232.0000000000002
 42
0.9999999999999999
 10
322.2775000000001
 20
232.0000000000002
 42
0.9999999999999999
  0
LWPOLYLINE
  5
130A
330
161A
100
AcDbEntity
  8
drill
100
AcDbPolyline
 90
        2
 70
   129
 43
0.0
 10
328.7774999999999
 20
202.0000000000002
 42
0.9999999999999999
 10
332.2774999999999
 20
202.0000000000002
 42
0.9999999999999999
  0
LWPOLYLINE
  5
130B
330
161A
100
AcDbEntity
  8
drill
100
AcDbPolyline
 90
        2
 70
   129
 43
0.0
 10
318.7774999999999
 20
202.0000000000001
 42
0.9999999999999999
 10
322.2774999999999
 20
202.0000000000001
 42
0.9999999999999999
  0
LWPOLYLINE
  5
130C
330
161A
100
AcDbEntity
  8
drill
100
AcDbPolyline
 90
        2
 70
   129
 43
0.0
 10
338.7774999999999
 20
202.0000000000001
 42
0.9999999999999999
 10
342.2774999999999
 20
202.0000000000001
 42
0.9999999999999999
  0
LWPOLYLINE
  5
130D
330
161A
100
AcDbEntity
  8
drill
100
AcDbPolyline
 90
        2
 70
   129
 43
0.0
 10
338.7774999999999
 20
192.0000000000001
 42
0.9999999999999999
 10
342.2774999999999
 20
192.0000000000001
 42
0.9999999999999999
  0
LWPOLYLINE
  5
130E
330
161A
100
AcDbEntity
  8
drill
100
AcDbPolyline
 90
        2
 70
   129
 43
0.0
 10
328.7774999999999
 20
192.0000000000001
 42
0.9999999999999999
 10
332.2774999999999
 20
192.0000000000001
 42
0.9999999999999999
  0
LWPOLYLINE
  5
130F
330
161A
100
AcDbEntity
  8
drill
100
AcDbPolyline
 90
        2
 70
   129
 43
0.0
 10
318.7774999999999
 20
192.0000000000002
 42
0.9999999999999999
 10
322.2774999999999
 20
192.0000000000002
 42
0.9999999999999999
  0
LWPOLYLINE
  5
1310
330
161A
100
AcDbEntity
  8
drill
100
AcDbPolyline
 90
        2
 70
   129
 43
0.0
 10
308.7774999999999
 20
192.0000000000002
 42
0.9999999999999999
 10
312.2774999999999
 20
192.0000000000002
 42
0.9999999999999999
  0
LWPOLYLINE
  5
1311
330
161A
100
AcDbEntity
  8
drill
100
AcDbPolyline
 90
        2
 70
   129
 43
0.0
 10
298.7774999999999
 20
192.0000000000002
 42
0.9999999999999999
 10
302.2774999999999
 20
192.0000000000002
 42
0.9999999999999999
  0
LWPOLYLINE
  5
1312
330
161A
100
AcDbEntity
  8
drill
100
AcDbPolyline
 90
        2
 70
   129
 43
0.0
 10
298.7775000000001
 20
182.0000000000001
 42
0.9999999999999999
 10
302.2775000000001
 20
182.0000000000001
 42
0.9999999999999999
  0
LWPOLYLINE
  5
1313
330
161A
100
AcDbEntity
  8
drill
100
AcDbPolyline
 90
        2
 70
   129
 43
0.0
 10
308.7774999999999
 20
182.0000000000001
 42
0.9999999999999999
 10
312.2774999999999
 20
182.0000000000001
 42
0.9999999999999999
  0
LWPOLYLINE
  5
1314
330
161A
100
AcDbEntity
  8
drill
100
AcDbPolyline
 90
        2
 70
   129
 43
0.0
 10
318.7774999999999
 20
182.0000000000001
 42
0.9999999999999999
 10
322.2774999999999
 20
182.0000000000001
 42
0.9999999999999999
  0
LWPOLYLINE
  5
1315
330
161A
100
AcDbEntity
  8
drill
100
AcDbPolyline
 90
        2
 70
   129
 43
0.0
 10
328.7774999999999
 20
182.0000000000002
 42
0.9999999999999999
 10
332.2774999999999
 20
182.0000000000002
 42
0.9999999999999999
  0
LWPOLYLINE
  5
1316
330
161A
100
AcDbEntity
  8
drill
100
AcDbPolyline
 90
        2
 70
   129
 43
0.0
 10
338.7774999999999
 20
182.0000000000001
 42
0.9999999999999999
 10
342.2774999999999
 20
182.0000000000001
 42
0.9999999999999999
  0
LWPOLYLINE
  5
1317
330
161A
100
AcDbEntity
  8
drill
100
AcDbPolyline
 90
        2
 70
   129
 43
0.0
 10
318.7775000000001
 20
242.0000000000002
 42
0.9999999999999999
 10
322.2775000000001
 20
242.0000000000002
 42
0.9999999999999999
  0
LWPOLYLINE
  5
1318
330
161A
100
AcDbEntity
  8
drill
100
AcDbPolyline
 90
        2
 70
   129
 43
0.0
 10
318.7774999999999
 20
252.0000000000002
 42
0.9999999999999999
 10
322.2774999999999
 20
252.0000000000002
 42
0.9999999999999999
  0
LWPOLYLINE
  5
1319
330
161A
100
AcDbEntity
  8
drill
100
AcDbPolyline
 90
        2
 70
   129
 43
0.0
 10
308.7774999999999
 20
252.0000000000002
 42
0.9999999999999999
 10
312.2774999999999
 20
252.0000000000002
 42
0.9999999999999999
  0
LWPOLYLINE
  5
131A
330
161A
100
AcDbEntity
  8
drill
100
AcDbPolyline
 90
        2
 70
   129
 43
0.0
 10
332.7774999999999
 20
232.0000000000002
 42
0.9999999999999999
 10
336.2774999999999
 20
232.0000000000002
 42
0.9999999999999999
  0
LWPOLYLINE
  5
131B
330
161A
100
AcDbEntity
  8
drill
100
AcDbPolyline
 90
        2
 70
   129
 43
0.0
 10
301.3828438267135
 20
148.8285557662479
 42
0.9999999999999999
 10
304.8828438267135
 20
148.8285557662479
 42
0.9999999999999999
  0
LWPOLYLINE
  5
131C
330
161A
100
AcDbEntity
  8
pocket
100
AcDbPolyline
 90
        4
 70
   128
 43
0.0
 10
314.0000000000001
 20
64.80000000000007
 10
314.0000000000001
 20
75.20000000000007
 10
326.0000000000001
 20
64.80000000000007
 10
326.0000000000001
 20
75.20000000000007
  0
LWPOLYLINE
  5
131D
330
161A
100
AcDbEntity
  8
in_cut
100
AcDbPolyline
 90
        4
 70
   129
 43
0.0
 10
345.0000000000001
 20
63.25000000000007
 42
0.9999999999999999
 10
345.0000000000001
 20
66.75000000000007
 10
332.0000000000001
 20
66.75000000000007
 42
0.9999999999999999
 10
332.0000000000001
 20
63.25000000000007
  0
LWPOLYLINE
  5
131E
330
161A
100
AcDbEntity
  8
in_cut
100
AcDbPolyline
 90
        4
 70
   129
 43
0.0
 10
332.0000000000001
 20
73.25000000000006
 42
-0.9999999999999999
 10
332.0000000000001
 20
76.75000000000006
 10
345.0000000000001
 20
76.75000000000006
 42
-0.9999999999999999
 10
345.0000000000001
 20
73.25000000000006
  0
LWPOLYLINE
  5
131F
330
161A
100
AcDbEntity
  8
0
100
AcDbPolyline
 90
        4
 70
   129
 43
0.0
 10
555.0
 20
275.0000000000001
 10
285.0
 20
275.0000000000001
 10
285.0
 20
5.0
 10
555.0
 20
5.0
  0
LWPOLYLINE
  5
1320
330
161A
100
AcDbEntity
  8
0
100
AcDbPolyline
 90
        4
 70
   129
 43
0.0
 10
5.0
 20
275.0
 10
5.0
 20
4.999999999999886
 10
275.0
 20
4.999999999999886
 10
275.0
 20
275.0
  0
LWPOLYLINE
  5
1321
330
161A
100
AcDbEntity
  8
drill
100
AcDbPolyline
 90
        2
 70
   129
 43
0.0
 10
381.572451918025
 20
214.5347396384922
 42
0.9999999999999999
 10
385.072451918025
 20
214.5347396384922
 42
0.9999999999999999
  0
LWPOLYLINE
  5
1322
330
161A
100
AcDbEntity
  8
drill
100
AcDbPolyline
 90
        2
 70
   129
 43
0.0
 10
449.7252765924265
 20
214.4775068330887
 42
0.9999999999999999
 10
453.2252765924265
 20
214.4775068330887
 42
0.9999999999999999
  0
LWPOLYLINE
  5
1323
330
161A
100
AcDbEntity
  8
drill
100
AcDbPolyline
 90
        2
 70
   129
 43
0.0
 10
514.9706747523337
 20
214.1913428060716
 42
0.9999999999999999
 10
518.4706747523337
 20
214.1913428060716
 42
0.9999999999999999
  0
LWPOLYLINE
  5
1324
330
161A
100
AcDbEntity
  8
drill
100
AcDbPolyline
 90
        2
 70
   129
 43
0.0
 10
381.572451918025
 20
244.5347396384922
 42
0.9999999999999999
 10
385.072451918025
 20
244.5347396384922
 42
0.9999999999999999
  0
LWPOLYLINE
  5
1325
330
161A
100
AcDbEntity
  8
drill
100
AcDbPolyline
 90
        2
 70
   129
 43
0.0
 10
449.7252765924265
 20
244.4775068330888
 42
0.9999999999999999
 10
453.2252765924265
 20
244.4775068330888
 42
0.9999999999999999
  0
LWPOLYLINE
  5
1326
330
161A
100
AcDbEntity
  8
drill
100
AcDbPolyline
 90
        2
 70
   129
 43
0.0
 10
514.9706747523337
 20
244.1913428060716
 42
0.9999999999999999
 10
518.4706747523337
 20
244.1913428060716
 42
0.9999999999999999
  0
LWPOLYLINE
  5
1327
330
161A
100
AcDbEntity
  8
drill
100
AcDbPolyline
 90
        2
 70
   129
 43
0.0
 10
401.572451918025
 20
214.5347396384922
 42
0.9999999999999999
 10
405.072451918025
 20
214.5347396384922
 42
0.9999999999999999
  0
LWPOLYLINE
  5
1328
330
161A
100
AcDbEntity
  8
drill
100
AcDbPolyline
 90
        2
 70
   129
 43
0.0
 10
469.7252765924265
 20
214.4775068330888
 42
0.9999999999999999
 10
473.2252765924265
 20
214.4775068330888
 42
0.9999999999999999
  0
LWPOLYLINE
  5
1329
330
161A
100
AcDbEntity
  8
drill
100
AcDbPolyline
 90
        2
 70
   129
 43
0.0
 10
534.9706747523337
 20
214.1913428060716
 42
0.9999999999999999
 10
538.4706747523337
 20
214.1913428060716
 42
0.9999999999999999
  0
LWPOLYLINE
  5
132A
330
161A
100
AcDbEntity
  8
drill
100
AcDbPolyline
 90
        2
 70
   129
 43
0.0
 10
401.572451918025
 20
244.5347396384922
 42
0.9999999999999999
 10
405.072451918025
 20
244.5347396384922
 42
0.9999999999999999
  0
LWPOLYLINE
  5
132B
330
161A
100
AcDbEntity
  8
drill
100
AcDbPolyline
 90
        2
 70
   129
 43
0.0
 10
469.7252765924265
 20
244.4775068330888
 42
0.9999999999999999
 10
473.2252765924265
 20
244.4775068330888
 42
0.9999999999999999
  0
LWPOLYLINE
  5
132C
330
161A
100
AcDbEntity
  8
drill
100
AcDbPolyline
 90
        2
 70
   129
 43
0.0
 10
534.9706747523337
 20
244.1913428060716
 42
0.9999999999999999
 10
538.4706747523337
 20
244.1913428060716
 42
0.9999999999999999
  0
LWPOLYLINE
  5
132D
330
161A
100
AcDbEntity
  8
drill
100
AcDbPolyline
 90
        2
 70
   129
 43
0.0
 10
391.572451918025
 20
214.5347396384922
 42
0.9999999999999999
 10
395.072451918025
 20
214.5347396384922
 42
0.9999999999999999
  0
LWPOLYLINE
  5
132E
330
161A
100
AcDbEntity
  8
drill
100
AcDbPolyline
 90
        2
 70
   129
 43
0.0
 10
459.7252765924265
 20
214.4775068330887
 42
0.9999999999999999
 10
463.2252765924265
 20
214.4775068330887
 42
0.9999999999999999
  0
LWPOLYLINE
  5
132F
330
161A
100
AcDbEntity
  8
drill
100
AcDbPolyline
 90
        2
 70
   129
 43
0.0
 10
524.9706747523337
 20
214.1913428060716
 42
0.9999999999999999
 10
528.4706747523337
 20
214.1913428060716
 42
0.9999999999999999
  0
LWPOLYLINE
  5
1330
330
161A
100
AcDbEntity
  8
drill
100
AcDbPolyline
 90
        2
 70
   129
 43
0.0
 10
391.572451918025
 20
244.5347396384922
 42
0.9999999999999999
 10
395.072451918025
 20
244.5347396384922
 42
0.9999999999999999
  0
LWPOLYLINE
  5
1331
330
161A
100
AcDbEntity
  8
drill
100
AcDbPolyline
 90
        2
 70
   129
 43
0.0
 10
459.7252765924265
 20
244.4775068330888
 42
0.9999999999999999
 10
463.2252765924265
 20
244.4775068330888
 42
0.9999999999999999
  0
LWPOLYLINE
  5
1332
330
161A
100
AcDbEntity
  8
drill
100
AcDbPolyline
 90
        2
 70
   129
 43
0.0
 10
524.9706747523337
 20
244.1913428060716
 42
0.9999999999999999
 10
528.4706747523337
 20
244.1913428060716
 42
0.9999999999999999
  0
LWPOLYLINE
  5
1333
330
161A
100
AcDbEntity
  8
drill
100
AcDbPolyline
 90
        2
 70
   129
 43
0.0
 10
411.572451918025
 20
204.5347396384922
 42
0.9999999999999999
 10
415.072451918025
 20
204.5347396384922
 42
0.9999999999999999
  0
LWPOLYLINE
  5
1334
330
161A
100
AcDbEntity
  8
drill
100
AcDbPolyline
 90
        2
 70
   129
 43
0.0
 10
479.7252765924265
 20
204.4775068330887
 42
0.9999999999999999
 10
483.2252765924265
 20
204.4775068330887
 42
0.9999999999999999
  0
LWPOLYLINE
  5
1335
330
161A
100
AcDbEntity
  8
drill
100
AcDbPolyline
 90
        2
 70
   129
 43
0.0
 10
544.9706747523337
 20
204.1913428060716
 42
0.9999999999999999
 10
548.4706747523337
 20
204.1913428060716
 42
0.9999999999999999
  0
LWPOLYLINE
  5
1336
330
161A
100
AcDbEntity
  8
drill
100
AcDbPolyline
 90
        2
 70
   129
 43
0.0
 10
401.572451918025
 20
204.5347396384922
 42
0.9999999999999999
 10
405.072451918025
 20
204.5347396384922
 42
0.9999999999999999
  0
LWPOLYLINE
  5
1337
330
161A
100
AcDbEntity
  8
drill
100
AcDbPolyline
 90
        2
 70
   129
 43
0.0
 10
469.7252765924265
 20
204.4775068330887
 42
0.9999999999999999
 10
473.2252765924265
 20
204.4775068330887
 42
0.9999999999999999
  0
LWPOLYLINE
  5
1338
330
161A
100
AcDbEntity
  8
drill
100
AcDbPolyline
 90
        2
 70
   129
 43
0.0
 10
534.9706747523337
 20
204.1913428060716
 42
0.9999999999999999
 10
538.4706747523337
 20
204.1913428060716
 42
0.9999999999999999
  0
LWPOLYLINE
  5
1339
330
161A
100
AcDbEntity
  8
drill
100
AcDbPolyline
 90
        2
 70
   129
 43
0.0
 10
401.572451918025
 20
234.5347396384922
 42
0.9999999999999999
 10
405.072451918025
 20
234.5347396384922
 42
0.9999999999999999
  0
LWPOLYLINE
  5
133A
330
161A
100
AcDbEntity
  8
drill
100
AcDbPolyline
 90
        2
 70
   129
 43
0.0
 10
469.7252765924265
 20
234.4775068330887
 42
0.9999999999999999
 10
473.2252765924265
 20
234.4775068330887
 42
0.9999999999999999
  0
LWPOLYLINE
  5
133B
330
161A
100
AcDbEntity
  8
drill
100
AcDbPolyline
 90
        2
 70
   129
 43
0.0
 10
534.9706747523337
 20
234.1913428060716
 42
0.9999999999999999
 10
538.4706747523337
 20
234.1913428060716
 42
0.9999999999999999
  0
LWPOLYLINE
  5
133C
330
161A
100
AcDbEntity
  8
drill
100
AcDbPolyline
 90
        2
 70
   129
 43
0.0
 10
391.572451918025
 20
204.5347396384922
 42
0.9999999999999999
 10
395.072451918025
 20
204.5347396384922
 42
0.9999999999999999
  0
LWPOLYLINE
  5
133D
330
161A
100
AcDbEntity
  8
drill
100
AcDbPolyline
 90
        2
 70
   129
 43
0.0
 10
459.7252765924265
 20
204.4775068330888
 42
0.9999999999999999
 10
463.2252765924265
 20
204.4775068330888
 42
0.9999999999999999
  0
LWPOLYLINE
  5
133E
330
161A
100
AcDbEntity
  8
drill
100
AcDbPolyline
 90
        2
 70
   129
 43
0.0
 10
524.9706747523337
 20
204.1913428060716
 42
0.9999999999999999
 10
528.4706747523337
 20
204.1913428060716
 42
0.9999999999999999
  0
LWPOLYLINE
  5
133F
330
161A
100
AcDbEntity
  8
drill
100
AcDbPolyline
 90
        2
 70
   129
 43
0.0
 10
391.572451918025
 20
234.5347396384922
 42
0.9999999999999999
 10
395.072451918025
 20
234.5347396384922
 42
0.9999999999999999
  0
LWPOLYLINE
  5
1340
330
161A
100
AcDbEntity
  8
drill
100
AcDbPolyline
 90
        2
 70
   129
 43
0.0
 10
459.7252765924265
 20
234.4775068330888
 42
0.9999999999999999
 10
463.2252765924265
 20
234.4775068330888
 42
0.9999999999999999
  0
LWPOLYLINE
  5
1341
330
161A
100
AcDbEntity
  8
drill
100
AcDbPolyline
 90
        2
 70
   129
 43
0.0
 10
524.9706747523337
 20
234.1913428060716
 42
0.9999999999999999
 10
528.4706747523337
 20
234.1913428060716
 42
0.9999999999999999
  0
LWPOLYLINE
  5
1342
330
161A
100
AcDbEntity
  8
drill
100
AcDbPolyline
 90
        2
 70
   129
 43
0.0
 10
381.572451918025
 20
204.5347396384922
 42
0.9999999999999999
 10
385.072451918025
 20
204.5347396384922
 42
0.9999999999999999
  0
LWPOLYLINE
  5
1343
330
161A
100
AcDbEntity
  8
drill
100
AcDbPolyline
 90
        2
 70
   129
 43
0.0
 10
449.7252765924265
 20
204.4775068330888
 42
0.9999999999999999
 10
453.2252765924265
 20
204.4775068330888
 42
0.9999999999999999
  0
LWPOLYLINE
  5
1344
330
161A
100
AcDbEntity
  8
drill
100
AcDbPolyline
 90
        2
 70
   129
 43
0.0
 10
514.9706747523337
 20
204.1913428060716
 42
0.9999999999999999
 10
518.4706747523337
 20
204.1913428060716
 42
0.9999999999999999
  0
LWPOLYLINE
  5
1345
330
161A
100
AcDbEntity
  8
drill
100
AcDbPolyline
 90
        2
 70
   129
 43
0.0
 10
381.572451918025
 20
234.5347396384922
 42
0.9999999999999999
 10
385.072451918025
 20
234.5347396384922
 42
0.9999999999999999
  0
LWPOLYLINE
  5
1346
330
161A
100
AcDbEntity
  8
drill
100
AcDbPolyline
 90
        2
 70
   129
 43
0.0
 10
449.7252765924265
 20
234.4775068330888
 42
0.9999999999999999
 10
453.2252765924265
 20
234.4775068330888
 42
0.9999999999999999
  0
LWPOLYLINE
  5
1347
330
161A
100
AcDbEntity
  8
drill
100
AcDbPolyline
 90
        2
 70
   129
 43
0.0
 10
514.9706747523337
 20
234.1913428060716
 42
0.9999999999999999
 10
518.4706747523337
 20
234.1913428060716
 42
0.9999999999999999
  0
LWPOLYLINE
  5
1348
330
161A
100
AcDbEntity
  8
drill
100
AcDbPolyline
 90
        2
 70
   129
 43
0.0
 10
371.572451918025
 20
204.5347396384922
 42
0.9999999999999999
 10
375.072451918025
 20
204.5347396384922
 42
0.9999999999999999
  0
LWPOLYLINE
  5
1349
330
161A
100
AcDbEntity
  8
drill
100
AcDbPolyline
 90
        2
 70
   129
 43
0.0
 10
439.7252765924265
 20
204.4775068330888
 42
0.9999999999999999
 10
443.2252765924265
 20
204.4775068330888
 42
0.9999999999999999
  0
LWPOLYLINE
  5
134A
330
161A
100
AcDbEntity
  8
drill
100
AcDbPolyline
 90
        2
 70
   129
 43
0.0
 10
504.9706747523337
 20
204.1913428060716
 42
0.9999999999999999
 10
508.4706747523337
 20
204.1913428060716
 42
0.9999999999999999
  0
LWPOLYLINE
  5
134B
330
161A
100
AcDbEntity
  8
drill
100
AcDbPolyline
 90
        2
 70
   129
 43
0.0
 10
361.572451918025
 20
204.5347396384922
 42
0.9999999999999999
 10
365.072451918025
 20
204.5347396384922
 42
0.9999999999999999
  0
LWPOLYLINE
  5
134C
330
161A
100
AcDbEntity
  8
drill
100
AcDbPolyline
 90
        2
 70
   129
 43
0.0
 10
429.7252765924265
 20
204.4775068330888
 42
0.9999999999999999
 10
433.2252765924265
 20
204.4775068330888
 42
0.9999999999999999
  0
LWPOLYLINE
  5
134D
330
161A
100
AcDbEntity
  8
drill
100
AcDbPolyline
 90
        2
 70
   129
 43
0.0
 10
494.9706747523337
 20
204.1913428060716
 42
0.9999999999999999
 10
498.4706747523337
 20
204.1913428060716
 42
0.9999999999999999
  0
LWPOLYLINE
  5
134E
330
161A
100
AcDbEntity
  8
drill
100
AcDbPolyline
 90
        2
 70
   129
 43
0.0
 10
381.572451918025
 20
194.5347396384922
 42
0.9999999999999999
 10
385.072451918025
 20
194.5347396384922
 42
0.9999999999999999
  0
LWPOLYLINE
  5
134F
330
161A
100
AcDbEntity
  8
drill
100
AcDbPolyline
 90
        2
 70
   129
 43
0.0
 10
449.7252765924265
 20
194.4775068330888
 42
0.9999999999999999
 10
453.2252765924265
 20
194.4775068330888
 42
0.9999999999999999
  0
LWPOLYLINE
  5
1350
330
161A
100
AcDbEntity
  8
drill
100
AcDbPolyline
 90
        2
 70
   129
 43
0.0
 10
514.9706747523337
 20
194.1913428060716
 42
0.9999999999999999
 10
518.4706747523337
 20
194.1913428060716
 42
0.9999999999999999
  0
LWPOLYLINE
  5
1351
330
161A
100
AcDbEntity
  8
drill
100
AcDbPolyline
 90
        2
 70
   129
 43
0.0
 10
381.572451918025
 20
224.5347396384922
 42
0.9999999999999999
 10
385.072451918025
 20
224.5347396384922
 42
0.9999999999999999
  0
LWPOLYLINE
  5
1352
330
161A
100
AcDbEntity
  8
drill
100
AcDbPolyline
 90
        2
 70
   129
 43
0.0
 10
449.7252765924265
 20
224.4775068330887
 42
0.9999999999999999
 10
453.2252765924265
 20
224.4775068330887
 42
0.9999999999999999
  0
LWPOLYLINE
  5
1353
330
161A
100
AcDbEntity
  8
drill
100
AcDbPolyline
 90
        2
 70
   129
 43
0.0
 10
514.9706747523337
 20
224.1913428060716
 42
0.9999999999999999
 10
518.4706747523337
 20
224.1913428060716
 42
0.9999999999999999
  0
LWPOLYLINE
  5
1354
330
161A
100
AcDbEntity
  8
drill
100
AcDbPolyline
 90
        2
 70
   129
 43
0.0
 10
391.572451918025
 20
194.5347396384922
 42
0.9999999999999999
 10
395.072451918025
 20
194.5347396384922
 42
0.9999999999999999
  0
LWPOLYLINE
  5
1355
330
161A
100
AcDbEntity
  8
drill
100
AcDbPolyline
 90
        2
 70
   129
 43
0.0
 10
459.7252765924265
 20
194.4775068330887
 42
0.9999999999999999
 10
463.2252765924265
 20
194.4775068330887
 42
0.9999999999999999
  0
LWPOLYLINE
  5
1356
330
161A
100
AcDbEntity
  8
drill
100
AcDbPolyline
 90
        2
 70
   129
 43
0.0
 10
524.9706747523337
 20
194.1913428060716
 42
0.9999999999999999
 10
528.4706747523337
 20
194.1913428060716
 42
0.9999999999999999
  0
LWPOLYLINE
  5
1357
330
161A
100
AcDbEntity
  8
drill
100
AcDbPolyline
 90
        2
 70
   129
 43
0.0
 10
391.572451918025
 20
224.5347396384922
 42
0.9999999999999999
 10
395.072451918025
 20
224.5347396384922
 42
0.9999999999999999
  0
LWPOLYLINE
  5
1358
330
161A
100
AcDbEntity
  8
drill
100
AcDbPolyline
 90
        2
 70
   129
 43
0.0
 10
459.7252765924265
 20
224.4775068330887
 42
0.9999999999999999
 10
463.2252765924265
 20
224.4775068330887
 42
0.9999999999999999
  0
LWPOLYLINE
  5
1359
330
161A
100
AcDbEntity
  8
drill
100
AcDbPolyline
 90
        2
 70
   129
 43
0.0
 10
524.9706747523337
 20
224.1913428060716
 42
0.9999999999999999
 10
528.4706747523337
 20
224.1913428060716
 42
0.9999999999999999
  0
LWPOLYLINE
  5
135A
330
161A
100
AcDbEntity
  8
drill
100
AcDbPolyline
 90
        2
 70
   129
 43
0.0
 10
401.572451918025
 20
194.5347396384922
 42
0.9999999999999999
 10
405.072451918025
 20
194.5347396384922
 42
0.9999999999999999
  0
LWPOLYLINE
  5
135B
330
161A
100
AcDbEntity
  8
drill
100
AcDbPolyline
 90
        2
 70
   129
 43
0.0
 10
469.7252765924265
 20
194.4775068330888
 42
0.9999999999999999
 10
473.2252765924265
 20
194.4775068330888
 42
0.9999999999999999
  0
LWPOLYLINE
  5
135C
330
161A
100
AcDbEntity
  8
drill
100
AcDbPolyline
 90
        2
 70
   129
 43
0.0
 10
534.9706747523337
 20
194.1913428060716
 42
0.9999999999999999
 10
538.4706747523337
 20
194.1913428060716
 42
0.9999999999999999
  0
LWPOLYLINE
  5
135D
330
161A
100
AcDbEntity
  8
drill
100
AcDbPolyline
 90
        2
 70
   129
 43
0.0
 10
401.572451918025
 20
224.5347396384922
 42
0.9999999999999999
 10
405.072451918025
 20
224.5347396384922
 42
0.9999999999999999
  0
LWPOLYLINE
  5
135E
330
161A
100
AcDbEntity
  8
drill
100
AcDbPolyline
 90
        2
 70
   129
 43
0.0
 10
469.7252765924265
 20
224.4775068330888
 42
0.9999999999999999
 10
473.2252765924265
 20
224.4775068330888
 42
0.9999999999999999
  0
LWPOLYLINE
  5
135F
330
161A
100
AcDbEntity
  8
drill
100
AcDbPolyline
 90
        2
 70
   129
 43
0.0
 10
534.9706747523337
 20
224.1913428060716
 42
0.9999999999999999
 10
538.4706747523337
 20
224.1913428060716
 42
0.9999999999999999
  0
LWPOLYLINE
  5
1360
330
161A
100
AcDbEntity
  8
out_cut
100
AcDbPolyline
 90
       20
 70
   129
 43
0.0
 10
373.475677724476
 20
219.2822676112626
 42
0.4236952541556271
 10
368.572451918025
 20
214.5347396384924
 10
368.572451918025
 20
212.2847396384922
 42
-0.414213562373095
 10
365.572451918025
 20
209.2847396384922
 10
363.322451918025
 20
209.2847396384922
 42
0.9999999999999999
 10
363.322451918025
 20
199.7847396384922
 10
365.572451918025
 20
199.7847396384922
 42
-0.414213562373095
 10
368.572451918025
 20
196.7847396384922
 10
368.572451918025
 20
194.5347396384922
 42
0.414213562373095
 10
373.322451918025
 20
189.7847396384922
 10
413.322451918025
 20
189.7847396384922
 42
0.414213562373095
 10
418.072451918025
 20
194.5347396384922
 10
418.072451918025
 20
214.5347396384921
 42
0.4236952541556636
 10
413.1692261115731
 20
219.2822676112626
 42
-0.4236952541556289
 10
410.072451918025
 20
222.280706330907
 10
410.072451918025
 20
244.5347396384922
 42
0.414213562373095
 10
403.322451918025
 20
251.2847396384922
 10
383.322451918025
 20
251.2847396384922
 42
0.414213562373095
 10
376.572451918025
 20
244.5347396384922
 10
376.572451918025
 20
222.2807063309074
 42
-0.423695254155675
  0
LWPOLYLINE
  5
1361
330
161A
100
AcDbEntity
  8
out_cut
100
AcDbPolyline
 90
       20
 70
   129
 43
0.0
 10
441.6285023988775
 20
219.2250348058591
 42
0.4236952541556253
 10
436.7252765924265
 20
214.4775068330889
 10
436.7252765924265
 20
212.2275068330888
 42
-0.414213562373095
 10
433.7252765924265
 20
209.2275068330888
 10
431.4752765924265
 20
209.2275068330888
 42
0.9999999999999999
 10
431.4752765924265
 20
199.7275068330888
 10
433.7252765924265
 20
199.7275068330888
 42
-0.414213562373095
 10
436.7252765924265
 20
196.7275068330888
 10
436.7252765924265
 20
194.4775068330888
 42
0.414213562373095
 10
441.4752765924265
 20
189.7275068330888
 10
481.4752765924265
 20
189.7275068330888
 42
0.414213562373095
 10
486.2252765924265
 20
194.4775068330888
 10
486.2252765924265
 20
214.4775068330886
 42
0.4236952541556599
 10
481.3220507859745
 20
219.2250348058591
 42
-0.423695254155626
 10
478.2252765924264
 20
222.2234735255036
 10
478.2252765924265
 20
244.4775068330888
 42
0.414213562373095
 10
471.4752765924265
 20
251.2275068330888
 10
451.4752765924265
 20
251.2275068330888
 42
0.414213562373095
 10
444.7252765924265
 20
244.4775068330888
 10
444.7252765924265
 20
222.2234735255039
 42
-0.423695254155675
  0
LWPOLYLINE
  5
1362
330
161A
100
AcDbEntity
  8
out_cut
100
AcDbPolyline
 90
       20
 70
   129
 43
0.0
 10
506.8739005587847
 20
218.938870778842
 42
0.4236952541556253
 10
501.9706747523337
 20
214.1913428060718
 10
501.9706747523337
 20
211.9413428060717
 42
-0.414213562373095
 10
498.9706747523337
 20
208.9413428060717
 10
496.7206747523337
 20
208.9413428060716
 42
0.9999999999999999
 10
496.7206747523337
 20
199.4413428060716
 10
498.9706747523337
 20
199.4413428060717
 42
-0.414213562373095
 10
501.9706747523337
 20
196.4413428060717
 10
501.9706747523337
 20
194.1913428060716
 42
0.414213562373095
 10
506.7206747523337
 20
189.4413428060716
 10
546.7206747523337
 20
189.4413428060716
 42
0.414213562373095
 10
551.4706747523337
 20
194.1913428060716
 10
551.4706747523337
 20
214.1913428060715
 42
0.4236952541556636
 10
546.5674489458818
 20
218.938870778842
 42
-0.423695254155626
 10
543.4706747523337
 20
221.9373094984864
 10
543.4706747523337
 20
244.1913428060716
 42
0.414213562373095
 10
536.7206747523337
 20
250.9413428060716
 10
516.7206747523337
 20
250.9413428060716
 42
0.414213562373095
 10
509.9706747523337
 20
244.1913428060716
 10
509.9706747523337
 20
221.9373094984868
 42
-0.423695254155675
  0
LWPOLYLINE
  5
1363
330
161A
100
AcDbEntity
  8
pocket
100
AcDbPolyline
 90
        2
 70
   129
 43
0.0
 10
367.572451918025
 20
214.5347396384922
 42
0.9999999999999999
 10
379.072451918025
 20
214.5347396384922
 42
0.9999999999999999
  0
LWPOLYLINE
  5
1364
330
161A
100
AcDbEntity
  8
pocket
100
AcDbPolyline
 90
        2
 70
   129
 43
0.0
 10
435.7252765924265
 20
214.4775068330887
 42
0.9999999999999999
 10
447.2252765924265
 20
214.4775068330887
 42
0.9999999999999999
  0
LWPOLYLINE
  5
1365
330
161A
100
AcDbEntity
  8
pocket
100
AcDbPolyline
 90
        2
 70
   129
 43
0.0
 10
500.9706747523337
 20
214.1913428060716
 42
0.9999999999999999
 10
512.4706747523337
 20
214.1913428060716
 42
0.9999999999999999
  0
LWPOLYLINE
  5
1366
330
161A
100
AcDbEntity
  8
pocket
100
AcDbPolyline
 90
        2
 70
   129
 43
0.0
 10
367.572451918025
 20
194.5347396384922
 42
0.9999999999999999
 10
379.072451918025
 20
194.5347396384922
 42
0.9999999999999999
  0
LWPOLYLINE
  5
1367
330
161A
100
AcDbEntity
  8
pocket
100
AcDbPolyline
 90
        2
 70
   129
 43
0.0
 10
435.7252765924265
 20
194.4775068330888
 42
0.9999999999999999
 10
447.2252765924265
 20
194.4775068330888
 42
0.9999999999999999
  0
LWPOLYLINE
  5
1368
330
161A
100
AcDbEntity
  8
pocket
100
AcDbPolyline
 90
        2
 70
   129
 43
0.0
 10
500.9706747523337
 20
194.1913428060716
 42
0.9999999999999999
 10
512.4706747523337
 20
194.1913428060716
 42
0.9999999999999999
  0
LWPOLYLINE
  5
1369
330
161A
100
AcDbEntity
  8
pocket
100
AcDbPolyline
 90
        2
 70
   129
 43
0.0
 10
407.572451918025
 20
194.5347396384922
 42
0.9999999999999999
 10
419.072451918025
 20
194.5347396384922
 42
0.9999999999999999
  0
LWPOLYLINE
  5
136A
330
161A
100
AcDbEntity
  8
pocket
100
AcDbPolyline
 90
        2
 70
   129
 43
0.0
 10
475.7252765924265
 20
194.4775068330888
 42
0.9999999999999999
 10
487.2252765924265
 20
194.4775068330888
 42
0.9999999999999999
  0
LWPOLYLINE
  5
136B
330
161A
100
AcDbEntity
  8
pocket
100
AcDbPolyline
 90
        2
 70
   129
 43
0.0
 10
540.9706747523337
 20
194.1913428060716
 42
0.9999999999999999
 10
552.4706747523337
 20
194.1913428060716
 42
0.9999999999999999
  0
LWPOLYLINE
  5
136C
330
161A
100
AcDbEntity
  8
pocket
100
AcDbPolyline
 90
        2
 70
   129
 43
0.0
 10
407.572451918025
 20
214.5347396384922
 42
0.9999999999999999
 10
419.072451918025
 20
214.5347396384922
 42
0.9999999999999999
  0
LWPOLYLINE
  5
136D
330
161A
100
AcDbEntity
  8
pocket
100
AcDbPolyline
 90
        2
 70
   129
 43
0.0
 10
475.7252765924265
 20
214.4775068330887
 42
0.9999999999999999
 10
487.2252765924265
 20
214.4775068330887
 42
0.9999999999999999
  0
LWPOLYLINE
  5
136E
330
161A
100
AcDbEntity
  8
pocket
100
AcDbPolyline
 90
        2
 70
   129
 43
0.0
 10
540.9706747523337
 20
214.1913428060716
 42
0.9999999999999999
 10
552.4706747523337
 20
214.1913428060716
 42
0.9999999999999999
  0
LWPOLYLINE
  5
136F
330
161A
100
AcDbEntity
  8
in_cut
100
AcDbPolyline
 90
        2
 70
   129
 43
0.0
 10
371.322451918025
 20
194.5347396384922
 42
0.9999999999999999
 10
375.322451918025
 20
194.5347396384922
 42
0.9999999999999999
  0
LWPOLYLINE
  5
1370
330
161A
100
AcDbEntity
  8
in_cut
100
AcDbPolyline
 90
        2
 70
   129
 43
0.0
 10
439.4752765924265
 20
194.4775068330888
 42
0.9999999999999999
 10
443.4752765924265
 20
194.4775068330888
 42
0.9999999999999999
  0
LWPOLYLINE
  5
1371
330
161A
100
AcDbEntity
  8
in_cut
100
AcDbPolyline
 90
        2
 70
   129
 43
0.0
 10
504.7206747523337
 20
194.1913428060716
 42
0.9999999999999999
 10
508.7206747523337
 20
194.1913428060716
 42
0.9999999999999999
  0
LWPOLYLINE
  5
1372
330
161A
100
AcDbEntity
  8
in_cut
100
AcDbPolyline
 90
        2
 70
   129
 43
0.0
 10
411.322451918025
 20
194.5347396384922
 42
0.9999999999999999
 10
415.322451918025
 20
194.5347396384922
 42
0.9999999999999999
  0
LWPOLYLINE
  5
1373
330
161A
100
AcDbEntity
  8
in_cut
100
AcDbPolyline
 90
        2
 70
   129
 43
0.0
 10
479.4752765924265
 20
194.4775068330888
 42
0.9999999999999999
 10
483.4752765924265
 20
194.4775068330888
 42
0.9999999999999999
  0
LWPOLYLINE
  5
1374
330
161A
100
AcDbEntity
  8
in_cut
100
AcDbPolyline
 90
        2
 70
   129
 43
0.0
 10
544.7206747523337
 20
194.1913428060716
 42
0.9999999999999999
 10
548.7206747523337
 20
194.1913428060716
 42
0.9999999999999999
  0
LWPOLYLINE
  5
1375
330
161A
100
AcDbEntity
  8
in_cut
100
AcDbPolyline
 90
        2
 70
   129
 43
0.0
 10
411.322451918025
 20
214.5347396384922
 42
0.9999999999999999
 10
415.322451918025
 20
214.5347396384922
 42
0.9999999999999999
  0
LWPOLYLINE
  5
1376
330
161A
100
AcDbEntity
  8
in_cut
100
AcDbPolyline
 90
        2
 70
   129
 43
0.0
 10
479.4752765924265
 20
214.4775068330887
 42
0.9999999999999999
 10
483.4752765924265
 20
214.4775068330887
 42
0.9999999999999999
  0
LWPOLYLINE
  5
1377
330
161A
100
AcDbEntity
  8
in_cut
100
AcDbPolyline
 90
        2
 70
   129
 43
0.0
 10
544.7206747523337
 20
214.1913428060716
 42
0.9999999999999999
 10
548.7206747523337
 20
214.1913428060716
 42
0.9999999999999999
  0
LWPOLYLINE
  5
1378
330
161A
100
AcDbEntity
  8
in_cut
100
AcDbPolyline
 90
        2
 70
   129
 43
0.0
 10
371.322451918025
 20
214.5347396384922
 42
0.9999999999999999
 10
375.322451918025
 20
214.5347396384922
 42
0.9999999999999999
  0
LWPOLYLINE
  5
1379
330
161A
100
AcDbEntity
  8
in_cut
100
AcDbPolyline
 90
        2
 70
   129
 43
0.0
 10
439.4752765924265
 20
214.4775068330887
 42
0.9999999999999999
 10
443.4752765924265
 20
214.4775068330887
 42
0.9999999999999999
  0
LWPOLYLINE
  5
137A
330
161A
100
AcDbEntity
  8
in_cut
100
AcDbPolyline
 90
        2
 70
   129
 43
0.0
 10
504.7206747523337
 20
214.1913428060716
 42
0.9999999999999999
 10
508.7206747523337
 20
214.1913428060716
 42
0.9999999999999999
  0
LWPOLYLINE
  5
137B
330
161A
100
AcDbEntity
  8
out_cut
100
AcDbPolyline
 90
       26
 70
   129
 43
0.0
 10
548.9878816120266
 20
131.9906247984941
 10
548.9878816120266
 20
80.14768549110659
 42
-0.4149242107290469
 10
546.9830302257915
 20
78.14769137510237
 10
529.8257169331114
 20
78.1893098743152
 42
0.3584864070893398
 10
527.8592998599063
 20
76.57952090397454
 42
-0.8185803274367904
 10
512.1746699351204
 20
76.54034148662866
 42
0.3563939586925952
 10
510.2150781408939
 20
78.14034148662866
 10
469.8109960831593
 20
78.14034148662866
 42
0.3563939586926197
 10
467.8514042889327
 20
76.54034148662869
 42
-0.8164965809277254
 10
452.1746699351203
 20
76.5403414866287
 42
0.3563939586926038
 10
450.2150781408939
 20
78.14034148662866
 10
439.3881736120267
 20
78.14034148662866
 42
-0.414213562373095
 10
437.3881736120267
 20
80.14034148662866
 10
437.3881736120267
 20
148.1595129866287
 42
-0.414213562373095
 10
439.3881736120267
 20
150.1595129866287
 10
441.1880276120267
 20
150.1595129866287
 42
0.414213562373095
 10
446.1880276120267
 20
155.1595129866287
 10
446.1880276120267
 20
160.1595129866287
 42
-0.414213562373095
 10
451.1880276120267
 20
165.1595129866287
 10
535.9789628473288
 20
165.1595129866286
 42
-0.414213562373095
 10
540.9789628473288
 20
160.1595129866286
 10
540.9789628473288
 20
152.2305813750575
 42
0.1989124185395574
 10
542.4434296373696
 20
148.6950467731514
 10
545.8621018960105
 20
145.2763758604482
 42
-0.198912418539509
 10
546.4478886120264
 20
143.8621620196859
 10
546.4478886120264
 20
134.5306177984941
  0
LWPOLYLINE
  5
137C
330
161A
100
AcDbEntity
  8
in_cut
100
AcDbPolyline
 90
        5
 70
   129
 43
0.0
 10
530.6880276120265
 20
154.6595129866287
 10
455.6880276120267
 20
154.6595129866287
 42
-0.9999999999999997
 10
455.6880276120266
 20
160.6595129866287
 10
530.6880276120266
 20
160.6595129866286
 42
-0.414213562373095
 10
533.6880276120266
 20
157.6595129866286
 42
-0.4142135623731117
  0
LWPOLYLINE
  5
137D
330
161A
100
AcDbEntity
  8
engrave
370
   211
100
AcDbPolyline
 90
        2
 70
   129
 43
0.0
 10
428.4933609089005
 20
42.6170293253345
 42
0.9999999999999999
 10
438.4933609089005
 20
42.6170293253345
 42
0.9999999999999999
  0
LWPOLYLINE
  5
137E
330
161A
100
AcDbEntity
  8
engrave
370
   211
100
AcDbPolyline
 90
        3
 70
   128
 43
0.0
 10
425.1600275755672
 20
47.61702932533453
 10
428.4933609089005
 20
47.61702932533453
 10
428.4933609089005
 20
32.6170293253345
  0
LWPOLYLINE
  5
137F
330
161A
100
AcDbEntity
  8
engrave
370
   211
100
AcDbPolyline
 90
        2
 70
   128
 43
0.0
 10
425.1600275755672
 20
32.6170293253345
 10
431.8266942422338
 20
32.6170293253345
  0
LWPOLYLINE
  5
1380
330
161A
100
AcDbEntity
  8
engrave
370
   211
100
AcDbPolyline
 90
        2
 70
   128
 43
0.0
 10
445.1600275755671
 20
37.6170293253345
 10
455.1600275755671
 20
37.6170293253345
  0
LWPOLYLINE
  5
1381
330
161A
100
AcDbEntity
  8
engrave
370
   211
100
AcDbPolyline
 90
        3
 70
   128
 43
0.0
 10
450.1600275755671
 20
37.6170293253345
 10
450.1600275755671
 20
52.61702932533453
 10
446.8266942422338
 20
52.61702932533453
  0
LWPOLYLINE
  5
1382
330
161A
100
AcDbEntity
  8
engrave
370
   211
100
AcDbPolyline
 90
        2
 70
   129
 43
0.0
 10
460.1600275755671
 20
42.6170293253345
 42
0.9999999999999999
 10
470.1600275755671
 20
42.6170293253345
 42
0.9999999999999999
  0
LWPOLYLINE
  5
1383
330
161A
100
AcDbEntity
  8
engrave
370
   211
100
AcDbPolyline
 90
        2
 70
   128
 43
0.0
 10
475.1600275755671
 20
47.61702932533453
 10
483.4933609089005
 20
47.61702932533453
  0
LWPOLYLINE
  5
1384
330
161A
100
AcDbEntity
  8
engrave
370
   211
100
AcDbPolyline
 90
        4
 70
   128
 43
0.0
 10
476.8266942422338
 20
50.95036265866786
 10
476.8266942422338
 20
40.9503626586678
 42
0.5250000000075399
 10
481.3435275755672
 20
37.8341959920012
 10
485.1600275755671
 20
39.2836959920012
  0
LWPOLYLINE
  5
1385
330
161A
100
AcDbEntity
  8
engrave
370
   211
100
AcDbPolyline
 90
        2
 70
   128
 43
0.0
 10
490.1600275755671
 20
47.61702932533453
 10
498.4933609089005
 20
47.61702932533453
  0
LWPOLYLINE
  5
1386
330
161A
100
AcDbEntity
  8
engrave
370
   211
100
AcDbPolyline
 90
        4
 70
   128
 43
0.0
 10
491.8266942422338
 20
50.95036265866786
 10
491.8266942422338
 20
40.9503626586678
 42
0.5250000000075399
 10
496.3435275755672
 20
37.8341959920012
 10
500.1600275755671
 20
39.2836959920012
  0
LWPOLYLINE
  5
1387
330
161A
100
AcDbEntity
  8
engrave
370
   211
100
AcDbPolyline
 90
        4
 70
   128
 43
0.0
 10
505.1600275755671
 20
42.6170293253345
 10
515.1600275755671
 20
42.6170293253345
 42
3.302800000167175
 10
512.0831942422337
 20
38.0016959920012
 10
515.1600275755671
 20
39.2836959920012
  0
LWPOLYLINE
  5
1388
330
161A
100
AcDbEntity
  8
engrave
370
   211
100
AcDbPolyline
 90
        3
 70
   128
 43
0.0
 10
519.3266942422338
 20
47.61702932533453
 10
521.8266942422338
 20
47.61702932533453
 10
521.8266942422338
 20
37.6170293253345
  0
LWPOLYLINE
  5
1389
330
161A
100
AcDbEntity
  8
engrave
370
   211
100
AcDbPolyline
 90
        3
 70
   128
 43
0.0
 10
521.8266942422338
 20
43.8106959920012
 10
524.8753609089005
 20
46.54986265866786
 42
-0.4133000000000033
 10
530.7505275755672
 20
46.24502932533451
  0
LWPOLYLINE
  5
138A
330
161A
100
AcDbEntity
  8
engrave
370
   211
100
AcDbPolyline
 90
        2
 70
   128
 43
0.0
 10
519.3266942422338
 20
37.6170293253345
 10
527.6600275755671
 20
37.6170293253345
  0
LWPOLYLINE
  5
138B
330
161A
100
AcDbEntity
  8
engrave
370
   211
100
AcDbPolyline
 90
        2
 70
   128
 43
0.0
 10
425.1600275755671
 20
26.01702932533451
 10
430.1600275755671
 20
26.01702932533451
  0
LWPOLYLINE
  5
138C
330
161A
100
AcDbEntity
  8
engrave
370
   211
100
AcDbPolyline
 90
        2
 70
   128
 43
0.0
 10
435.1600275755671
 20
26.01702932533451
 10
440.1600275755671
 20
26.01702932533451
  0
LWPOLYLINE
  5
138D
330
161A
100
AcDbEntity
  8
engrave
370
   211
100
AcDbPolyline
 90
        3
 70
   128
 43
0.0
 10
437.6600275755671
 20
26.01702932533451
 10
432.6600275755671
 20
16.01702932533451
 10
427.6600275755671
 20
26.01702932533451
  0
LWPOLYLINE
  5
138E
330
161A
100
AcDbEntity
  8
engrave
370
   211
100
AcDbPolyline
 90
        3
 70
   128
 43
0.0
 10
457.5643609089005
 20
21.8101959920012
 42
0.3455000000000029
 10
454.3266942422338
 20
24.35036265866781
 10
452.6600275755671
 20
24.35036265866781
  0
LWPOLYLINE
  5
138F
330
161A
100
AcDbEntity
  8
engrave
370
   211
100
AcDbPolyline
 90
        2
 70
   128
 43
0.0
 10
454.3266942422338
 20
24.35036265866781
 42
1.089599999999957
 10
453.7580275755672
 20
30.9681959920012
  0
LWPOLYLINE
  5
1390
330
161A
100
AcDbEntity
  8
engrave
370
   211
100
AcDbPolyline
 90
        2
 70
   128
 43
0.0
 10
454.1631919881463
 20
31.0063453032006
 42
0.2240515623450029
 10
449.4902050495861
 20
28.3379255876464
  0
LWPOLYLINE
  5
1391
330
161A
100
AcDbEntity
  8
engrave
370
   211
100
AcDbPolyline
 90
        2
 70
   128
 43
0.0
 10
449.3266429771122
 20
17.68358880207469
 42
0.786530354421912
 10
457.547480398898
 20
21.8017581819152
  0
CIRCLE
  5
1392
330
161A
100
AcDbEntity
  8
fixture
100
AcDbCircle
 10
265.0
 20
265.0
 30
0.0
 40
4.0
  0
CIRCLE
  5
1393
330
161A
100
AcDbEntity
  8
fixture
100
AcDbCircle
 10
15.0
 20
265.0
 30
0.0
 40
4.0
  0
CIRCLE
  5
1394
330
161A
100
AcDbEntity
  8
fixture
100
AcDbCircle
 10
265.0
 20
15.0
 30
0.0
 40
4.0
  0
CIRCLE
  5
1395
330
161A
100
AcDbEntity
  8
fixture
100
AcDbCircle
 10
15.0
 20
15.0
 30
0.0
 40
4.0
  0
CIRCLE
  5
1396
330
161A
100
AcDbEntity
  8
fixture
100
AcDbCircle
 10
162.8604370161305
 20
130.6087929000097
 30
0.0
 40
4.0
  0
CIRCLE
  5
1397
330
161A
100
AcDbEntity
  8
fixture
100
AcDbCircle
 10
14.89603220694693
 20
139.9547583661115
 30
0.0
 40
4.0
  0
CIRCLE
  5
1398
330
161A
100
AcDbEntity
  8
fixture
100
AcDbCircle
 10
355.0
 20
155.0000000000001
 30
0.0
 40
4.0
  0
CIRCLE
  5
1399
330
161A
100
AcDbEntity
  8
fixture
100
AcDbCircle
 10
545.0
 20
265.0000000000001
 30
0.0
 40
4.0
  0
CIRCLE
  5
139A
330
161A
100
AcDbEntity
  8
fixture
100
AcDbCircle
 10
295.0
 20
265.0000000000001
 30
0.0
 40
4.0
  0
CIRCLE
  5
139B
330
161A
100
AcDbEntity
  8
fixture
100
AcDbCircle
 10
545.0
 20
15.00000000000011
 30
0.0
 40
4.0
  0
CIRCLE
  5
139C
330
161A
100
AcDbEntity
  8
fixture
100
AcDbCircle
 10
435.0
 20
65.00000000000011
 30
0.0
 40
4.0
  0
CIRCLE
  5
139D
330
161A
100
AcDbEntity
  8
fixture
100
AcDbCircle
 10
405.0
 20
15.00000000000011
 30
0.0
 40
4.0
  0
CIRCLE
  5
139E
330
161A
100
AcDbEntity
  8
fixture
100
AcDbCircle
 10
313.0
 20
30.0000000000001
 30
0.0
 40
4.0
  0
VIEWPORT
  5
16EC
330
1616
100
AcDbEntity
 67
     1
  8
0
100
AcDbViewport
 10
128.5
 20
97.5
 30
0.0
 40
314.226
 41
222.18
 68
     1
 69
     1
 12
128.5
 22
97.5
 13
0.0
 23
0.0
 14
10.0
 24
10.0
 15
10.0
 25
10.0
 16
0.0
 26
0.0
 36
1.0
 17
0.0
 27
0.0
 37
0.0
 42
50.0
 43
0.0
 44
0.0
 45
222.18
 50
0.0
 51
0.0
 72
   100
 90
   557152
  1

281
     0
 71
     1
 74
     0
110
0.0
120
0.0
130
0.0
111
1.0
121
0.0
131
0.0
112
0.0
122
1.0
132
0.0
 79
     0
146
0.0
170
     0
 61
     5
348
162A
292
     1
282
     1
141
0.0
142
0.0
 63
   256
361
16ED
  0
ENDSEC
  0
SECTION
  2
OBJECTS
  0
DICTIONARY
  5
1608
330
0
100
AcDbDictionary
281
     1
  3
ACAD_DETAILVIEWSTYLE
350
1701
  3
ACAD_GROUP
350
1609
  3
ACAD_LAYOUT
350
1615
  3
ACAD_MATERIAL
350
163E
  3
ACAD_MLEADERSTYLE
350
1666
  3
ACAD_MLINESTYLE
350
1612
  3
ACAD_PLOTSETTINGS
350
1614
  3
ACAD_PLOTSTYLENAME
350
160A
  3
ACAD_SCALELIST
350
1642
  3
ACAD_SECTIONVIEWSTYLE
350
1702
  3
ACAD_TABLESTYLE
350
1664
  3
ACAD_VISUALSTYLE
350
1625
  3
ACDB_RECOMPOSE_DATA
350
16FE
  3
AcDbVariableDictionary
350
16FA
  3
QCAD_OBJECTS
350
166A
  0
SUN
  5
1668
330
1624
100
AcDbSun
 90
        1
290
     0
 63
     7
421
 16777215
 40
1.0
291
     1
 91
  2455826
 92
 54000000
292
     0
 70
     2
 71
   256
280
     1
  0
SUN
  5
16ED
330
16EC
100
AcDbSun
 90
        1
290
     0
 63
     7
421
 16777215
 40
1.0
291
     1
 91
  2455826
 92
 54000000
292
     0
 70
     2
 71
   256
280
     1
  0
DICTIONARY
  5
1701
102
{ACAD_REACTORS
330
1608
102
}
330
1608
100
AcDbDictionary
281
     1
  0
DICTIONARY
  5
1609
102
{ACAD_REACTORS
330
1608
102
}
330
1608
100
AcDbDictionary
281
     1
  0
DICTIONARY
  5
1615
102
{ACAD_REACTORS
330
1608
102
}
330
1608
100
AcDbDictionary
281
     1
  3
Layout1
350
1619
  3
Model
350
161D
  0
DICTIONARY
  5
163E
102
{ACAD_REACTORS
330
1608
102
}
330
1608
100
AcDbDictionary
281
     1
  3
ByBlock
350
1640
  3
ByLayer
350
163F
  3
Global
350
1641
  0
DICTIONARY
  5
1666
102
{ACAD_REACTORS
330
1608
102
}
330
1608
100
AcDbDictionary
281
     1
  3
Standard
350
1667
  0
DICTIONARY
  5
1612
102
{ACAD_REACTORS
330
1608
102
}
330
1608
100
AcDbDictionary
281
     1
  3
Standard
350
1613
  0
DICTIONARY
  5
1614
102
{ACAD_REACTORS
330
1608
102
}
330
1608
100
AcDbDictionary
281
     1
  0
ACDBDICTIONARYWDFLT
  5
160A
102
{ACAD_REACTORS
330
1608
102
}
330
1608
100
AcDbDictionary
281
     1
  3
Normal
350
160B
100
AcDbDictionaryWithDefault
340
160B
  0
DICTIONARY
  5
1642
102
{ACAD_REACTORS
330
1608
102
}
330
1608
100
AcDbDictionary
281
     1
  3
A0
350
1643
  3
A1
350
1644
  3
A2
350
1645
  3
A3
350
1646
  3
A4
350
1647
  3
A5
350
1648
  3
A6
350
1649
  3
A7
350
164A
  3
A8
350
164B
  3
A9
350
164C
  3
B0
350
164D
  3
B1
350
164E
  3
B2
350
164F
  3
B3
350
1650
  3
B4
350
1651
  3
B5
350
1652
  3
B6
350
1653
  3
B7
350
1654
  3
B8
350
1655
  3
B9
350
1656
  3
C0
350
1657
  3
C1
350
1658
  3
C2
350
1659
  3
C3
350
165A
  3
C4
350
165B
  3
C5
350
165C
  3
C6
350
165D
  3
C7
350
165E
  3
C8
350
165F
  3
C9
350
1660
  3
D0
350
1661
  3
D1
350
1662
  3
D2
350
1663
  0
DICTIONARY
  5
1702
102
{ACAD_REACTORS
330
1608
102
}
330
1608
100
AcDbDictionary
281
     1
  0
DICTIONARY
  5
1664
102
{ACAD_REACTORS
330
1608
102
}
330
1608
100
AcDbDictionary
281
     1
  3
Standard
350
1665
  0
DICTIONARY
  5
1625
102
{ACAD_REACTORS
330
1608
102
}
330
1608
100
AcDbDictionary
281
     1
  3
2dWireframe
350
162A
  3
Basic
350
162D
  3
Brighten
350
1631
  3
ColorChange
350
1635
  3
Conceptual
350
162F
  3
Dim
350
1630
  3
EdgeColorOff
350
1638
  3
Facepattern
350
1634
  3
Flat
350
1626
  3
FlatWithEdges
350
1627
  3
Gouraud
350
1628
  3
GouraudWithEdges
350
1629
  3
Hidden
350
162C
  3
JitterOff
350
1636
  3
Linepattern
350
1633
  3
OverhangOff
350
1637
  3
Realistic
350
162E
  3
Shaded
350
163D
  3
Shaded with edges
350
163C
  3
Shades of Gray
350
1639
  3
Sketchy
350
163A
  3
Thicken
350
1632
  3
Wireframe
350
162B
  3
X-Ray
350
163B
  0
XRECORD
  5
16FE
102
{ACAD_REACTORS
330
1608
102
}
330
1608
100
AcDbXrecord
280
     1
 90
        1
330
1665
  0
DICTIONARY
  5
16FA
102
{ACAD_REACTORS
330
1608
102
}
330
1608
100
AcDbDictionary
281
     1
  3
CANNOSCALE
350
16FB
  3
CMLEADERSTYLE
350
1700
  3
CTABLESTYLE
350
16FF
  0
DICTIONARY
  5
166A
102
{ACAD_REACTORS
330
1608
102
}
330
1608
100
AcDbDictionary
281
     1
  3
CamExport/ConfigV2
350
166C
  3
ColorSettings/BackgroundColor
350
166D
  3
ColorSettings/ColorMode
350
166E
  3
Grid/DisplayGrid00
350
166F
  3
Grid/DisplayGrid01
350
1670
  3
Grid/DisplayGrid02
350
1671
  3
Grid/DisplayGrid03
350
1672
  3
Grid/GridSpacingX00
350
1673
  3
Grid/GridSpacingX01
350
1674
  3
Grid/GridSpacingX02
350
1675
  3
Grid/GridSpacingX03
350
1676
  3
Grid/GridSpacingY00
350
1677
  3
Grid/GridSpacingY01
350
1678
  3
Grid/GridSpacingY02
350
1679
  3
Grid/GridSpacingY03
350
167A
  3
Grid/IsometricGrid00
350
167B
  3
Grid/IsometricGrid01
350
167C
  3
Grid/IsometricGrid02
350
167D
  3
Grid/IsometricGrid03
350
167E
  3
Grid/IsometricProjection00
350
167F
  3
Grid/IsometricProjection01
350
1680
  3
Grid/IsometricProjection02
350
1681
  3
Grid/IsometricProjection03
350
1682
  3
Grid/MetaGridSpacingX00
350
1683
  3
Grid/MetaGridSpacingX01
350
1684
  3
Grid/MetaGridSpacingX02
350
1685
  3
Grid/MetaGridSpacingX03
350
1686
  3
Grid/MetaGridSpacingY00
350
1687
  3
Grid/MetaGridSpacingY01
350
1688
  3
Grid/MetaGridSpacingY02
350
1689
  3
Grid/MetaGridSpacingY03
350
168A
  3
MultiPageSettings/Columns
350
168B
  3
MultiPageSettings/GlueMarginsBottom
350
168C
  3
MultiPageSettings/GlueMarginsLeft
350
168D
  3
MultiPageSettings/GlueMarginsRight
350
168E
  3
MultiPageSettings/GlueMarginsTop
350
168F
  3
MultiPageSettings/PrintCropMarks
350
1690
  3
MultiPageSettings/Rows
350
1691
  3
PageSettings/OffsetX
350
1692
  3
PageSettings/OffsetY
350
1693
  3
PageSettings/PageOrientation
350
1694
  3
PageSettings/PaperHeight
350
1695
  3
PageSettings/PaperWidth
350
1696
  3
PageSettings/Scale
350
1697
  3
PageSettings/ShowPaperBorders
350
1698
  3
PageTagSettings/EnablePageTags
350
1699
  3
PageTagSettings/TagAlignment
350
169A
  3
PageTagSettings/TagFont
350
169B
  3
PageTagSettings/TagPosition
350
169C
  3
QCADVersion
350
169D
  3
UnitSettings/PaperUnit
350
169E
  3
ViewportCenter
350
169F
  3
ViewportHeight
350
16A0
  3
ViewportWidth
350
16A1
  0
LAYOUT
  5
1619
102
{ACAD_REACTORS
330
1615
102
}
330
1615
100
AcDbPlotSettings
  1

  2
none_device
  4
ISO_A4_(210.00_x_297.00_MM)
  6

 40
7.5
 41
20.0
 42
7.5
 43
20.0
 44
210.0
 45
297.0
 46
0.0
 47
0.0
 48
0.0
 49
0.0
140
0.0
141
0.0
142
1.0
143
1.0
 70
   688
 72
     1
 73
     1
 74
     5
  7

 75
     0
 76
     0
 77
     2
 78
   300
147
1.0
148
0.0
149
0.0
100
AcDbLayout
  1
Layout1
 70
     1
 71
     0
 10
-20.0
 20
-7.5
 11
277.0
 21
202.5
 12
0.0
 22
0.0
 32
0.0
 14
0.0
 24
0.0
 34
0.0
 15
0.0
 25
0.0
 35
0.0
146
0.0
 13
0.0
 23
0.0
 33
0.0
 16
1.0
 26
0.0
 36
0.0
 17
0.0
 27
1.0
 37
0.0
 76
     0
330
1616
331
16EC
  0
LAYOUT
  5
161D
102
{ACAD_REACTORS
330
1615
102
}
330
1615
100
AcDbPlotSettings
  1

  2
none_device
  4
Letter_(8.50_x_11.00_Inches)
  6

 40
6.35
 41
6.35
 42
6.35000508
 43
6.35000508
 44
215.9
 45
279.4
 46
0.0
 47
0.0
 48
0.0
 49
0.0
140
0.0
141
0.0
142
1.0
143
1.0
 70
  1712
 72
     0
 73
     0
 74
     0
  7

 75
     0
 76
     0
 77
     2
 78
   300
147
1.0
148
0.0
149
0.0
100
AcDbLayout
  1
Model
 70
     1
 71
     0
 10
0.0
 20
0.0
 11
12.0
 21
9.0
 12
0.0
 22
0.0
 32
0.0
 14
5.0
 24
4.999999999999886
 34
0.0
 15
555.0
 25
275.0000000000001
 35
0.0
146
0.0
 13
0.0
 23
0.0
 33
0.0
 16
1.0
 26
0.0
 36
0.0
 17
0.0
 27
1.0
 37
0.0
 76
     0
330
161A
331
1624
  0
MATERIAL
  5
1640
102
{ACAD_REACTORS
330
163E
102
}
330
163E
100
AcDbMaterial
  1
ByBlock
 72
     1
 94
      127
  0
MATERIAL
  5
163F
102
{ACAD_REACTORS
330
163E
102
}
330
163E
100
AcDbMaterial
  1
ByLayer
 72
     1
 94
      127
  0
MATERIAL
  5
1641
102
{ACAD_REACTORS
330
163E
102
}
330
163E
100
AcDbMaterial
  1
Global
 72
     1
 94
      127
  0
MLEADERSTYLE
  5
1667
102
{ACAD_REACTORS
330
1666
102
}
330
1666
100
AcDbMLeaderStyle
179
     2
170
     2
171
     1
172
     0
 90
        2
 40
0.0
 41
0.0
173
     1
 91
-1056964608
340
160F
 92
       -2
290
     1
 42
0.09
291
     1
 43
0.36
  3
Standard
341
0
 44
0.18
300

342
160D
174
     1
178
     6
175
     1
176
     0
 93
-1056964608
 45
0.18
292
     0
297
     0
 46
0.18
343
0
 94
-1056964608
 47
1.0
 49
1.0
140
1.0
293
     1
141
0.0
294
     1
177
     0
142
1.0
295
     0
296
     0
143
0.125
271
     0
272
     9
273
     9
298
     0
  0
MLINESTYLE
  5
1613
102
{ACAD_REACTORS
330
1612
102
}
330
1612
100
AcDbMlineStyle
  2
Standard
 70
     0
  3

 62
   256
 51
90.0
 52
90.0
 71
     2
 49
0.5
 62
   256
  6
BYLAYER
 49
-0.5
 62
   256
  6
BYLAYER
  0
ACDBPLACEHOLDER
  5
160B
102
{ACAD_REACTORS
330
160A
102
}
330
160A
  0
SCALE
  5
1643
102
{ACAD_REACTORS
330
1642
102
}
330
1642
100
AcDbScale
 70
     0
300
1:1
140
1.0
141
1.0
290
     1
  0
SCALE
  5
1644
102
{ACAD_REACTORS
330
1642
102
}
330
1642
100
AcDbScale
 70
     0
300
1:2
140
1.0
141
2.0
290
     0
  0
SCALE
  5
1645
102
{ACAD_REACTORS
330
1642
102
}
330
1642
100
AcDbScale
 70
     0
300
1:4
140
1.0
141
4.0
290
     0
  0
SCALE
  5
1646
102
{ACAD_REACTORS
330
1642
102
}
330
1642
100
AcDbScale
 70
     0
300
1:5
140
1.0
141
5.0
290
     0
  0
SCALE
  5
1647
102
{ACAD_REACTORS
330
1642
102
}
330
1642
100
AcDbScale
 70
     0
300
1:8
140
1.0
141
8.0
290
     0
  0
SCALE
  5
1648
102
{ACAD_REACTORS
330
1642
102
}
330
1642
100
AcDbScale
 70
     0
300
1:10
140
1.0
141
10.0
290
     0
  0
SCALE
  5
1649
102
{ACAD_REACTORS
330
1642
102
}
330
1642
100
AcDbScale
 70
     0
300
1:16
140
1.0
141
16.0
290
     0
  0
SCALE
  5
164A
102
{ACAD_REACTORS
330
1642
102
}
330
1642
100
AcDbScale
 70
     0
300
1:20
140
1.0
141
20.0
290
     0
  0
SCALE
  5
164B
102
{ACAD_REACTORS
330
1642
102
}
330
1642
100
AcDbScale
 70
     0
300
1:30
140
1.0
141
30.0
290
     0
  0
SCALE
  5
164C
102
{ACAD_REACTORS
330
1642
102
}
330
1642
100
AcDbScale
 70
     0
300
1:40
140
1.0
141
40.0
290
     0
  0
SCALE
  5
164D
102
{ACAD_REACTORS
330
1642
102
}
330
1642
100
AcDbScale
 70
     0
300
1:50
140
1.0
141
50.0
290
     0
  0
SCALE
  5
164E
102
{ACAD_REACTORS
330
1642
102
}
330
1642
100
AcDbScale
 70
     0
300
1:100
140
1.0
141
100.0
290
     0
  0
SCALE
  5
164F
102
{ACAD_REACTORS
330
1642
102
}
330
1642
100
AcDbScale
 70
     0
300
2:1
140
2.0
141
1.0
290
     0
  0
SCALE
  5
1650
102
{ACAD_REACTORS
330
1642
102
}
330
1642
100
AcDbScale
 70
     0
300
4:1
140
4.0
141
1.0
290
     0
  0
SCALE
  5
1651
102
{ACAD_REACTORS
330
1642
102
}
330
1642
100
AcDbScale
 70
     0
300
8:1
140
8.0
141
1.0
290
     0
  0
SCALE
  5
1652
102
{ACAD_REACTORS
330
1642
102
}
330
1642
100
AcDbScale
 70
     0
300
10:1
140
10.0
141
1.0
290
     0
  0
SCALE
  5
1653
102
{ACAD_REACTORS
330
1642
102
}
330
1642
100
AcDbScale
 70
     0
300
100:1
140
100.0
141
1.0
290
     0
  0
SCALE
  5
1654
102
{ACAD_REACTORS
330
1642
102
}
330
1642
100
AcDbScale
 70
     0
300
1/128" = 1'-0"
140
0.0078125
141
12.0
290
     0
  0
SCALE
  5
1655
102
{ACAD_REACTORS
330
1642
102
}
330
1642
100
AcDbScale
 70
     0
300
1/64" = 1'-0"
140
0.015625
141
12.0
290
     0
  0
SCALE
  5
1656
102
{ACAD_REACTORS
330
1642
102
}
330
1642
100
AcDbScale
 70
     0
300
1/32" = 1'-0"
140
0.03125
141
12.0
290
     0
  0
SCALE
  5
1657
102
{ACAD_REACTORS
330
1642
102
}
330
1642
100
AcDbScale
 70
     0
300
1/16" = 1'-0"
140
0.0625
141
12.0
290
     0
  0
SCALE
  5
1658
102
{ACAD_REACTORS
330
1642
102
}
330
1642
100
AcDbScale
 70
     0
300
3/32" = 1'-0"
140
0.09375
141
12.0
290
     0
  0
SCALE
  5
1659
102
{ACAD_REACTORS
330
1642
102
}
330
1642
100
AcDbScale
 70
     0
300
1/8" = 1'-0"
140
0.125
141
12.0
290
     0
  0
SCALE
  5
165A
102
{ACAD_REACTORS
330
1642
102
}
330
1642
100
AcDbScale
 70
     0
300
3/16" = 1'-0"
140
0.1875
141
12.0
290
     0
  0
SCALE
  5
165B
102
{ACAD_REACTORS
330
1642
102
}
330
1642
100
AcDbScale
 70
     0
300
1/4" = 1'-0"
140
0.25
141
12.0
290
     0
  0
SCALE
  5
165C
102
{ACAD_REACTORS
330
1642
102
}
330
1642
100
AcDbScale
 70
     0
300
3/8" = 1'-0"
140
0.375
141
12.0
290
     0
  0
SCALE
  5
165D
102
{ACAD_REACTORS
330
1642
102
}
330
1642
100
AcDbScale
 70
     0
300
1/2" = 1'-0"
140
0.5
141
12.0
290
     0
  0
SCALE
  5
165E
102
{ACAD_REACTORS
330
1642
102
}
330
1642
100
AcDbScale
 70
     0
300
3/4" = 1'-0"
140
0.75
141
12.0
290
     0
  0
SCALE
  5
165F
102
{ACAD_REACTORS
330
1642
102
}
330
1642
100
AcDbScale
 70
     0
300
1" = 1'-0"
140
1.0
141
12.0
290
     0
  0
SCALE
  5
1660
102
{ACAD_REACTORS
330
1642
102
}
330
1642
100
AcDbScale
 70
     0
300
1-1/2" = 1'-0"
140
1.5
141
12.0
290
     0
  0
SCALE
  5
1661
102
{ACAD_REACTORS
330
1642
102
}
330
1642
100
AcDbScale
 70
     0
300
3" = 1'-0"
140
3.0
141
12.0
290
     0
  0
SCALE
  5
1662
102
{ACAD_REACTORS
330
1642
102
}
330
1642
100
AcDbScale
 70
     0
300
6" = 1'-0"
140
6.0
141
12.0
290
     0
  0
SCALE
  5
1663
102
{ACAD_REACTORS
330
1642
102
}
330
1642
100
AcDbScale
 70
     0
300
1'-0" = 1'-0"
140
12.0
141
12.0
290
     0
  0
TABLESTYLE
  5
1665
102
{ACAD_REACTORS
330
1664
102
}
102
{ACAD_XDICTIONARY
360
16FC
102
}
330
1664
100
AcDbTableStyle
  3
Standard
 70
     0
 71
     0
 40
0.06
 41
0.06
280
     0
281
     0
  7
Standard
140
0.18
170
     2
 62
     0
 63
   257
283
     0
 90
        4
 91
        0
  1

274
    -2
284
     1
 64
     0
275
    -2
285
     1
 65
     0
276
    -2
286
     1
 66
     0
277
    -2
287
     1
 67
     0
278
    -2
288
     1
 68
     0
279
    -2
289
     1
 69
     0
  7
Standard
140
0.25
170
     5
 62
     0
 63
   257
283
     0
 90
        4
 91
        0
  1

274
    -2
284
     1
 64
     0
275
    -2
285
     1
 65
     0
276
    -2
286
     1
 66
     0
277
    -2
287
     1
 67
     0
278
    -2
288
     1
 68
     0
279
    -2
289
     1
 69
     0
  7
Standard
140
0.18
170
     5
 62
     0
 63
   257
283
     0
 90
        4
 91
        0
  1

274
    -2
284
     1
 64
     0
275
    -2
285
     1
 65
     0
276
    -2
286
     1
 66
     0
277
    -2
287
     1
 67
     0
278
    -2
288
     1
 68
     0
279
    -2
289
     1
 69
     0
  0
VISUALSTYLE
  5
162A
102
{ACAD_REACTORS
330
1625
102
}
330
1625
100
AcDbVisualStyle
  2
2dWireframe
 70
     4
177
     3
291
     0
 70
    58
 90
        0
176
     1
 90
        2
176
     1
 90
        0
176
     1
 90
        0
176
     1
 40
0.6
176
     1
 40
30.0
176
     1
 62
     7
420
 16777215
176
     1
 90
        1
176
     1
 90
        4
176
     1
 62
     7
176
     1
 62
   257
176
     1
 90
        1
176
     1
 90
        1
176
     1
 40
1.0
176
     1
 90
        0
176
     1
 62
   257
176
     1
 40
1.0
176
     1
 90
        1
176
     1
 90
        6
176
     1
 90
        2
176
     1
 62
     7
176
     1
 90
        5
176
     1
 90
        0
176
     1
 90
        0
176
     1
290
     0
176
     1
 90
        1
176
     1
 40
0.0
176
     1
 90
        0
176
     1
290
     1
176
     1
290
     1
176
     1
290
     0
176
     1
290
     0
176
     1
290
     0
176
     1
290
     0
176
     1
290
     0
176
     1
290
     0
176
     1
290
     0
176
     1
 90
       50
176
     1
 40
0.0
176
     1
 40
1.0
176
     1
 90
        0
176
     1
 62
   178
420
        0
176
     1
 90
       50
176
     1
 90
        3
176
     1
 62
     5
420
      255
176
     1
290
     0
176
     1
 90
       50
176
     1
 90
       50
176
     1
 90
       50
176
     1
290
     0
176
     1
 90
       50
176
     1
 62
   256
176
     0
 40
1.0
176
     0
 90
        2
176
     1
  1
strokes_ogs.tif
176
     1
290
     0
176
     1
 40
1.0
176
     1
 40
1.0
176
     1
  0
VISUALSTYLE
  5
162D
102
{ACAD_REACTORS
330
1625
102
}
330
1625
100
AcDbVisualStyle
  2
Basic
 70
     7
177
     3
291
     1
 70
    58
 90
        1
176
     1
 90
        0
176
     1
 90
        1
176
     1
 90
        0
176
     1
 40
0.6
176
     1
 40
30.0
176
     1
 62
     7
420
 16777215
176
     1
 90
        0
176
     1
 90
        4
176
     1
 62
     7
176
     1
 62
   257
176
     1
 90
        1
176
     1
 90
        1
176
     1
 40
1.0
176
     1
 90
        8
176
     1
 62
     7
176
     1
 40
1.0
176
     1
 90
        1
176
     1
 90
        6
176
     1
 90
        2
176
     1
 62
     7
176
     1
 90
        5
176
     1
 90
        0
176
     1
 90
        0
176
     1
290
     0
176
     1
 90
        1
176
     1
 40
0.0
176
     1
 90
        0
176
     1
290
     0
176
     1
290
     1
176
     1
290
     1
176
     1
290
     0
176
     1
290
     0
176
     1
290
     0
176
     1
290
     0
176
     1
290
     0
176
     1
290
     0
176
     1
 90
       50
176
     1
 40
0.0
176
     1
 40
1.0
176
     1
 90
        0
176
     1
 62
   178
420
        0
176
     1
 90
       50
176
     1
 90
        3
176
     1
 62
     5
420
      255
176
     1
290
     0
176
     1
 90
       50
176
     1
 90
       50
176
     1
 90
       50
176
     1
290
     0
176
     1
 90
       50
176
     1
 62
   256
176
     0
 40
1.0
176
     0
 90
        2
176
     1
  1
strokes_ogs.tif
176
     1
290
     0
176
     1
 40
1.0
176
     1
 40
1.0
176
     1
  0
VISUALSTYLE
  5
1631
102
{ACAD_REACTORS
330
1625
102
}
330
1625
100
AcDbVisualStyle
  2
Brighten
 70
    12
177
     3
291
     1
 70
    58
 90
        2
176
     1
 90
        2
176
     1
 90
        0
176
     1
 90
        0
176
     1
 40
0.6
176
     1
 40
30.0
176
     1
 62
     7
420
 16777215
176
     1
 90
        1
176
     1
 90
        4
176
     1
 62
     7
176
     1
 62
   257
176
     1
 90
        1
176
     1
 90
        1
176
     1
 40
1.0
176
     1
 90
        8
176
     1
 62
     7
176
     1
 40
1.0
176
     1
 90
        1
176
     1
 90
        6
176
     1
 90
        2
176
     1
 62
     7
176
     1
 90
        5
176
     1
 90
        0
176
     1
 90
        0
176
     1
290
     0
176
     1
 90
        1
176
     1
 40
50.0
176
     1
 90
        0
176
     1
290
     0
176
     1
290
     1
176
     1
290
     1
176
     1
290
     0
176
     1
290
     0
176
     1
290
     0
176
     1
290
     0
176
     1
290
     0
176
     1
290
     0
176
     1
 90
       50
176
     1
 40
0.0
176
     1
 40
1.0
176
     1
 90
        0
176
     1
 62
   178
420
        0
176
     1
 90
       50
176
     1
 90
        3
176
     1
 62
     5
420
      255
176
     1
290
     0
176
     1
 90
       50
176
     1
 90
       50
176
     1
 90
       50
176
     1
290
     0
176
     1
 90
       50
176
     1
 62
   256
176
     0
 40
1.0
176
     0
 90
        2
176
     1
  1
strokes_ogs.tif
176
     1
290
     0
176
     1
 40
1.0
176
     1
 40
1.0
176
     1
  0
VISUALSTYLE
  5
1635
102
{ACAD_REACTORS
330
1625
102
}
330
1625
100
AcDbVisualStyle
  2
ColorChange
 70
    16
177
     3
291
     1
 70
    58
 90
        2
176
     1
 90
        2
176
     1
 90
        3
176
     1
 90
        0
176
     1
 40
0.6
176
     1
 40
30.0
176
     1
 62
     8
420
  8421504
176
     1
 90
        1
176
     1
 90
        4
176
     1
 62
     7
176
     1
 62
   257
176
     1
 90
        1
176
     1
 90
        1
176
     1
 40
1.0
176
     1
 90
        8
176
     1
 62
     8
420
  8421504
176
     1
 40
1.0
176
     1
 90
        1
176
     1
 90
        6
176
     1
 90
        2
176
     1
 62
     7
176
     1
 90
        5
176
     1
 90
        0
176
     1
 90
        0
176
     1
290
     0
176
     1
 90
        1
176
     1
 40
0.0
176
     1
 90
        0
176
     1
290
     0
176
     1
290
     1
176
     1
290
     1
176
     1
290
     0
176
     1
290
     0
176
     1
290
     0
176
     1
290
     0
176
     1
290
     0
176
     1
290
     0
176
     1
 90
       50
176
     1
 40
0.0
176
     1
 40
1.0
176
     1
 90
        0
176
     1
 62
   178
420
        0
176
     1
 90
       50
176
     1
 90
        3
176
     1
 62
     5
420
      255
176
     1
290
     0
176
     1
 90
       50
176
     1
 90
       50
176
     1
 90
       50
176
     1
290
     0
176
     1
 90
       50
176
     1
 62
   256
176
     0
 40
1.0
176
     0
 90
        2
176
     1
  1
strokes_ogs.tif
176
     1
290
     0
176
     1
 40
1.0
176
     1
 40
1.0
176
     1
  0
VISUALSTYLE
  5
162F
102
{ACAD_REACTORS
330
1625
102
}
330
1625
100
AcDbVisualStyle
  2
Conceptual
 70
     9
177
     3
291
     0
 70
    58
 90
        3
176
     1
 90
        2
176
     1
 90
        0
176
     1
 90
        0
176
     1
 40
0.6
176
     1
 40
30.0
176
     1
 62
     7
420
 16777215
176
     1
 90
        2
176
     1
 90
        2
176
     1
 62
     7
176
     1
 62
   257
176
     1
 90
        1
176
     1
 90
        1
176
     1
 40
179.0
176
     1
 90
        8
176
     1
 62
     7
176
     1
 40
1.0
176
     1
 90
        1
176
     1
 90
        6
176
     1
 90
        2
176
     1
 62
     7
176
     1
 90
        3
176
     1
 90
        0
176
     1
 90
        0
176
     1
290
     0
176
     1
 90
        1
176
     1
 40
0.0
176
     1
 90
        0
176
     1
290
     0
176
     1
290
     1
176
     1
290
     1
176
     1
290
     0
176
     1
290
     0
176
     1
290
     0
176
     1
290
     0
176
     1
290
     0
176
     1
290
     0
176
     1
 90
       50
176
     1
 40
0.0
176
     1
 40
1.0
176
     1
 90
        0
176
     1
 62
   178
420
        0
176
     1
 90
       50
176
     1
 90
        3
176
     1
 62
     5
420
      255
176
     1
290
     0
176
     1
 90
       50
176
     1
 90
       50
176
     1
 90
       50
176
     1
290
     0
176
     1
 90
       50
176
     1
 62
   256
176
     0
 40
1.0
176
     0
 90
        2
176
     1
  1
strokes_ogs.tif
176
     1
290
     0
176
     1
 40
1.0
176
     1
 40
1.0
176
     1
  0
VISUALSTYLE
  5
1630
102
{ACAD_REACTORS
330
1625
102
}
330
1625
100
AcDbVisualStyle
  2
Dim
 70
    11
177
     3
291
     1
 70
    58
 90
        2
176
     1
 90
        2
176
     1
 90
        0
176
     1
 90
        0
176
     1
 40
0.6
176
     1
 40
30.0
176
     1
 62
     7
420
 16777215
176
     1
 90
        1
176
     1
 90
        4
176
     1
 62
     7
176
     1
 62
   257
176
     1
 90
        1
176
     1
 90
        1
176
     1
 40
1.0
176
     1
 90
        8
176
     1
 62
     7
176
     1
 40
1.0
176
     1
 90
        1
176
     1
 90
        6
176
     1
 90
        2
176
     1
 62
     7
176
     1
 90
        5
176
     1
 90
        0
176
     1
 90
        0
176
     1
290
     0
176
     1
 90
        1
176
     1
 40
-50.0
176
     1
 90
        0
176
     1
290
     0
176
     1
290
     1
176
     1
290
     1
176
     1
290
     0
176
     1
290
     0
176
     1
290
     0
176
     1
290
     0
176
     1
290
     0
176
     1
290
     0
176
     1
 90
       50
176
     1
 40
0.0
176
     1
 40
1.0
176
     1
 90
        0
176
     1
 62
   178
420
        0
176
     1
 90
       50
176
     1
 90
        3
176
     1
 62
     5
420
      255
176
     1
290
     0
176
     1
 90
       50
176
     1
 90
       50
176
     1
 90
       50
176
     1
290
     0
176
     1
 90
       50
176
     1
 62
   256
176
     0
 40
1.0
176
     0
 90
        2
176
     1
  1
strokes_ogs.tif
176
     1
290
     0
176
     1
 40
1.0
176
     1
 40
1.0
176
     1
  0
VISUALSTYLE
  5
1638
102
{ACAD_REACTORS
330
1625
102
}
330
1625
100
AcDbVisualStyle
  2
EdgeColorOff
 70
    22
177
     3
291
     1
 70
    58
 90
        2
176
     0
 90
        2
176
     0
 90
        0
176
     0
 90
        0
176
     0
 40
0.6
176
     0
 40
30.0
176
     0
 62
     7
420
 16777215
176
     0
 90
        1
176
     0
 90
        4
176
     0
 62
     7
176
     0
 62
   257
176
     0
 90
        1
176
     0
 90
        1
176
     0
 40
1.0
176
     0
 90
        8
176
     2
 62
     7
176
     0
 40
1.0
176
     0
 90
        1
176
     0
 90
        6
176
     0
 90
        2
176
     0
 62
     7
176
     0
 90
        5
176
     0
 90
        0
176
     0
 90
        0
176
     0
290
     0
176
     0
 90
        1
176
     0
 40
0.0
176
     0
 90
        0
176
     0
290
     0
176
     0
290
     1
176
     0
290
     1
176
     0
290
     0
176
     0
290
     0
176
     0
290
     0
176
     0
290
     0
176
     0
290
     0
176
     0
290
     0
176
     0
 90
       50
176
     0
 40
0.0
176
     0
 40
1.0
176
     0
 90
        0
176
     0
 62
   178
420
        0
176
     0
 90
       50
176
     0
 90
        3
176
     0
 62
     5
420
      255
176
     0
290
     0
176
     0
 90
       50
176
     0
 90
       50
176
     0
 90
       50
176
     0
290
     0
176
     0
 90
       50
176
     0
 62
   256
176
     0
 40
1.0
176
     0
 90
        2
176
     0
  1
strokes_ogs.tif
176
     0
290
     0
176
     0
 40
1.0
176
     0
 40
1.0
176
     0
  0
VISUALSTYLE
  5
1634
102
{ACAD_REACTORS
330
1625
102
}
330
1625
100
AcDbVisualStyle
  2
Facepattern
 70
    15
177
     3
291
     1
 70
    58
 90
        2
176
     1
 90
        2
176
     1
 90
        0
176
     1
 90
        0
176
     1
 40
0.6
176
     1
 40
30.0
176
     1
 62
     7
420
 16777215
176
     1
 90
        1
176
     1
 90
        4
176
     1
 62
     7
176
     1
 62
   257
176
     1
 90
        1
176
     1
 90
        1
176
     1
 40
1.0
176
     1
 90
        8
176
     1
 62
     7
176
     1
 40
1.0
176
     1
 90
        1
176
     1
 90
        6
176
     1
 90
        2
176
     1
 62
     7
176
     1
 90
        5
176
     1
 90
        0
176
     1
 90
        0
176
     1
290
     0
176
     1
 90
        1
176
     1
 40
0.0
176
     1
 90
        0
176
     1
290
     0
176
     1
290
     1
176
     1
290
     1
176
     1
290
     0
176
     1
290
     0
176
     1
290
     0
176
     1
290
     0
176
     1
290
     0
176
     1
290
     0
176
     1
 90
       50
176
     1
 40
0.0
176
     1
 40
1.0
176
     1
 90
        0
176
     1
 62
   178
420
        0
176
     1
 90
       50
176
     1
 90
        3
176
     1
 62
     5
420
      255
176
     1
290
     0
176
     1
 90
       50
176
     1
 90
       50
176
     1
 90
       50
176
     1
290
     0
176
     1
 90
       50
176
     1
 62
   256
176
     0
 40
1.0
176
     0
 90
        2
176
     1
  1
strokes_ogs.tif
176
     1
290
     0
176
     1
 40
1.0
176
     1
 40
1.0
176
     1
  0
VISUALSTYLE
  5
1626
102
{ACAD_REACTORS
330
1625
102
}
330
1625
100
AcDbVisualStyle
  2
Flat
 70
     0
177
     3
291
     1
 70
    58
 90
        2
176
     1
 90
        1
176
     1
 90
        1
176
     1
 90
        2
176
     1
 40
0.6
176
     1
 40
30.0
176
     1
 62
     7
420
 16777215
176
     1
 90
        0
176
     1
 90
        0
176
     1
 62
     7
176
     1
 62
   257
176
     1
 90
        1
176
     1
 90
        1
176
     1
 40
1.0
176
     1
 90
        8
176
     1
 62
     7
176
     1
 40
1.0
176
     1
 90
        1
176
     1
 90
        6
176
     1
 90
        2
176
     1
 62
     7
176
     1
 90
        5
176
     1
 90
        0
176
     1
 90
        0
176
     1
290
     0
176
     1
 90
       13
176
     1
 40
0.0
176
     1
 90
        0
176
     1
290
     0
176
     1
290
     1
176
     1
290
     1
176
     1
290
     0
176
     1
290
     0
176
     1
290
     0
176
     1
290
     0
176
     1
290
     0
176
     1
290
     0
176
     1
 90
       50
176
     1
 40
0.0
176
     1
 40
1.0
176
     1
 90
        0
176
     1
 62
   178
420
        0
176
     1
 90
       50
176
     1
 90
        3
176
     1
 62
     5
420
      255
176
     1
290
     0
176
     1
 90
       50
176
     1
 90
       50
176
     1
 90
       50
176
     1
290
     0
176
     1
 90
       50
176
     1
 62
   256
176
     0
 40
1.0
176
     0
 90
        2
176
     1
  1
strokes_ogs.tif
176
     1
290
     0
176
     1
 40
1.0
176
     1
 40
1.0
176
     1
  0
VISUALSTYLE
  5
1627
102
{ACAD_REACTORS
330
1625
102
}
330
1625
100
AcDbVisualStyle
  2
FlatWithEdges
 70
     1
177
     3
291
     1
 70
    58
 90
        2
176
     1
 90
        1
176
     1
 90
        1
176
     1
 90
        2
176
     1
 40
0.6
176
     1
 40
30.0
176
     1
 62
     7
420
 16777215
176
     1
 90
        1
176
     1
 90
        0
176
     1
 62
     7
176
     1
 62
   257
176
     1
 90
        1
176
     1
 90
        1
176
     1
 40
1.0
176
     1
 90
        0
176
     1
 62
   257
176
     1
 40
1.0
176
     1
 90
        1
176
     1
 90
        6
176
     1
 90
        2
176
     1
 62
     7
176
     1
 90
        5
176
     1
 90
        0
176
     1
 90
        0
176
     1
290
     0
176
     1
 90
       13
176
     1
 40
0.0
176
     1
 90
        0
176
     1
290
     0
176
     1
290
     1
176
     1
290
     1
176
     1
290
     0
176
     1
290
     0
176
     1
290
     0
176
     1
290
     0
176
     1
290
     0
176
     1
290
     0
176
     1
 90
       50
176
     1
 40
0.0
176
     1
 40
1.0
176
     1
 90
        0
176
     1
 62
   178
420
        0
176
     1
 90
       50
176
     1
 90
        3
176
     1
 62
     5
420
      255
176
     1
290
     0
176
     1
 90
       50
176
     1
 90
       50
176
     1
 90
       50
176
     1
290
     0
176
     1
 90
       50
176
     1
 62
   256
176
     0
 40
1.0
176
     0
 90
        2
176
     1
  1
strokes_ogs.tif
176
     1
290
     0
176
     1
 40
1.0
176
     1
 40
1.0
176
     1
  0
VISUALSTYLE
  5
1628
102
{ACAD_REACTORS
330
1625
102
}
330
1625
100
AcDbVisualStyle
  2
Gouraud
 70
     2
177
     3
291
     1
 70
    58
 90
        2
176
     1
 90
        2
176
     1
 90
        1
176
     1
 90
        2
176
     1
 40
0.6
176
     1
 40
30.0
176
     1
 62
     7
420
 16777215
176
     1
 90
        0
176
     1
 90
        0
176
     1
 62
     7
176
     1
 62
   257
176
     1
 90
        1
176
     1
 90
        1
176
     1
 40
1.0
176
     1
 90
        0
176
     1
 62
     7
176
     1
 40
1.0
176
     1
 90
        1
176
     1
 90
        6
176
     1
 90
        2
176
     1
 62
     7
176
     1
 90
        5
176
     1
 90
        0
176
     1
 90
        0
176
     1
290
     0
176
     1
 90
       13
176
     1
 40
0.0
176
     1
 90
        0
176
     1
290
     0
176
     1
290
     1
176
     1
290
     1
176
     1
290
     0
176
     1
290
     0
176
     1
290
     0
176
     1
290
     0
176
     1
290
     0
176
     1
290
     0
176
     1
 90
       50
176
     1
 40
0.0
176
     1
 40
1.0
176
     1
 90
        0
176
     1
 62
   178
420
        0
176
     1
 90
       50
176
     1
 90
        3
176
     1
 62
     5
420
      255
176
     1
290
     0
176
     1
 90
       50
176
     1
 90
       50
176
     1
 90
       50
176
     1
290
     0
176
     1
 90
       50
176
     1
 62
   256
176
     0
 40
1.0
176
     0
 90
        2
176
     1
  1
strokes_ogs.tif
176
     1
290
     0
176
     1
 40
1.0
176
     1
 40
1.0
176
     1
  0
VISUALSTYLE
  5
1629
102
{ACAD_REACTORS
330
1625
102
}
330
1625
100
AcDbVisualStyle
  2
GouraudWithEdges
 70
     3
177
     3
291
     1
 70
    58
 90
        2
176
     1
 90
        2
176
     1
 90
        1
176
     1
 90
        2
176
     1
 40
0.6
176
     1
 40
30.0
176
     1
 62
     7
420
 16777215
176
     1
 90
        1
176
     1
 90
        0
176
     1
 62
     7
176
     1
 62
   257
176
     1
 90
        1
176
     1
 90
        1
176
     1
 40
1.0
176
     1
 90
        0
176
     1
 62
   257
176
     1
 40
1.0
176
     1
 90
        1
176
     1
 90
        6
176
     1
 90
        2
176
     1
 62
     7
176
     1
 90
        5
176
     1
 90
        0
176
     1
 90
        0
176
     1
290
     0
176
     1
 90
       13
176
     1
 40
0.0
176
     1
 90
        0
176
     1
290
     0
176
     1
290
     1
176
     1
290
     1
176
     1
290
     0
176
     1
290
     0
176
     1
290
     0
176
     1
290
     0
176
     1
290
     0
176
     1
290
     0
176
     1
 90
       50
176
     1
 40
0.0
176
     1
 40
1.0
176
     1
 90
        0
176
     1
 62
   178
420
        0
176
     1
 90
       50
176
     1
 90
        3
176
     1
 62
     5
420
      255
176
     1
290
     0
176
     1
 90
       50
176
     1
 90
       50
176
     1
 90
       50
176
     1
290
     0
176
     1
 90
       50
176
     1
 62
   256
176
     0
 40
1.0
176
     0
 90
        2
176
     1
  1
strokes_ogs.tif
176
     1
290
     0
176
     1
 40
1.0
176
     1
 40
1.0
176
     1
  0
VISUALSTYLE
  5
162C
102
{ACAD_REACTORS
330
1625
102
}
330
1625
100
AcDbVisualStyle
  2
Hidden
 70
     6
177
     3
291
     0
 70
    58
 90
        1
176
     1
 90
        2
176
     1
 90
        2
176
     1
 90
        0
176
     1
 40
0.6
176
     1
 40
30.0
176
     1
 62
     7
420
 16777215
176
     1
 90
        2
176
     1
 90
        2
176
     1
 62
     7
176
     1
 62
   257
176
     1
 90
        2
176
     1
 90
        1
176
     1
 40
40.0
176
     1
 90
        0
176
     1
 62
   257
176
     1
 40
1.0
176
     1
 90
        1
176
     1
 90
        6
176
     1
 90
        2
176
     1
 62
     7
176
     1
 90
        3
176
     1
 90
        0
176
     1
 90
        0
176
     1
290
     0
176
     1
 90
        1
176
     1
 40
0.0
176
     1
 90
        0
176
     1
290
     0
176
     1
290
     1
176
     1
290
     1
176
     1
290
     0
176
     1
290
     0
176
     1
290
     0
176
     1
290
     0
176
     1
290
     0
176
     1
290
     0
176
     1
 90
       50
176
     1
 40
0.0
176
     1
 40
1.0
176
     1
 90
        0
176
     1
 62
   178
420
        0
176
     1
 90
       50
176
     1
 90
        3
176
     1
 62
     5
420
      255
176
     1
290
     0
176
     1
 90
       50
176
     1
 90
       50
176
     1
 90
       50
176
     1
290
     0
176
     1
 90
       50
176
     1
 62
   256
176
     0
 40
1.0
176
     0
 90
        2
176
     1
  1
strokes_ogs.tif
176
     1
290
     0
176
     1
 40
1.0
176
     1
 40
1.0
176
     1
  0
VISUALSTYLE
  5
1636
102
{ACAD_REACTORS
330
1625
102
}
330
1625
100
AcDbVisualStyle
  2
JitterOff
 70
    20
177
     3
291
     1
 70
    58
 90
        2
176
     0
 90
        2
176
     0
 90
        0
176
     0
 90
        0
176
     0
 40
0.6
176
     0
 40
30.0
176
     0
 62
     7
420
 16777215
176
     0
 90
        1
176
     0
 90
        4
176
     0
 62
     7
176
     0
 62
   257
176
     0
 90
        1
176
     0
 90
        1
176
     0
 40
1.0
176
     0
 90
       10
176
     2
 62
     7
176
     0
 40
1.0
176
     0
 90
        1
176
     0
 90
        6
176
     0
 90
        2
176
     0
 62
     7
176
     0
 90
        5
176
     0
 90
        0
176
     0
 90
        0
176
     0
290
     0
176
     0
 90
        1
176
     0
 40
0.0
176
     0
 90
        0
176
     0
290
     0
176
     0
290
     1
176
     0
290
     1
176
     0
290
     0
176
     0
290
     0
176
     0
290
     0
176
     0
290
     0
176
     0
290
     0
176
     0
290
     0
176
     0
 90
       50
176
     0
 40
0.0
176
     0
 40
1.0
176
     0
 90
        0
176
     0
 62
   178
420
        0
176
     0
 90
       50
176
     0
 90
        3
176
     0
 62
     5
420
      255
176
     0
290
     0
176
     0
 90
       50
176
     0
 90
       50
176
     0
 90
       50
176
     0
290
     0
176
     0
 90
       50
176
     0
 62
   256
176
     0
 40
1.0
176
     0
 90
        2
176
     0
  1
strokes_ogs.tif
176
     0
290
     0
176
     0
 40
1.0
176
     0
 40
1.0
176
     0
  0
VISUALSTYLE
  5
1633
102
{ACAD_REACTORS
330
1625
102
}
330
1625
100
AcDbVisualStyle
  2
Linepattern
 70
    14
177
     3
291
     1
 70
    58
 90
        2
176
     1
 90
        2
176
     1
 90
        0
176
     1
 90
        0
176
     1
 40
0.6
176
     1
 40
30.0
176
     1
 62
     7
420
 16777215
176
     1
 90
        1
176
     1
 90
        4
176
     1
 62
     7
176
     1
 62
   257
176
     1
 90
        7
176
     1
 90
        7
176
     1
 40
1.0
176
     1
 90
        8
176
     1
 62
     7
176
     1
 40
1.0
176
     1
 90
        1
176
     1
 90
        6
176
     1
 90
        2
176
     1
 62
     7
176
     1
 90
        5
176
     1
 90
        0
176
     1
 90
        0
176
     1
290
     0
176
     1
 90
        1
176
     1
 40
0.0
176
     1
 90
        0
176
     1
290
     0
176
     1
290
     1
176
     1
290
     1
176
     1
290
     0
176
     1
290
     0
176
     1
290
     0
176
     1
290
     0
176
     1
290
     0
176
     1
290
     0
176
     1
 90
       50
176
     1
 40
0.0
176
     1
 40
1.0
176
     1
 90
        0
176
     1
 62
   178
420
        0
176
     1
 90
       50
176
     1
 90
        3
176
     1
 62
     5
420
      255
176
     1
290
     0
176
     1
 90
       50
176
     1
 90
       50
176
     1
 90
       50
176
     1
290
     0
176
     1
 90
       50
176
     1
 62
   256
176
     0
 40
1.0
176
     0
 90
        2
176
     1
  1
strokes_ogs.tif
176
     1
290
     0
176
     1
 40
1.0
176
     1
 40
1.0
176
     1
  0
VISUALSTYLE
  5
1637
102
{ACAD_REACTORS
330
1625
102
}
330
1625
100
AcDbVisualStyle
  2
OverhangOff
 70
    21
177
     3
291
     1
 70
    58
 90
        2
176
     0
 90
        2
176
     0
 90
        0
176
     0
 90
        0
176
     0
 40
0.6
176
     0
 40
30.0
176
     0
 62
     7
420
 16777215
176
     0
 90
        1
176
     0
 90
        4
176
     0
 62
     7
176
     0
 62
   257
176
     0
 90
        1
176
     0
 90
        1
176
     0
 40
1.0
176
     0
 90
        9
176
     2
 62
     7
176
     0
 40
1.0
176
     0
 90
        1
176
     0
 90
        6
176
     0
 90
        2
176
     0
 62
     7
176
     0
 90
        5
176
     0
 90
        0
176
     0
 90
        0
176
     0
290
     0
176
     0
 90
        1
176
     0
 40
0.0
176
     0
 90
        0
176
     0
290
     0
176
     0
290
     1
176
     0
290
     1
176
     0
290
     0
176
     0
290
     0
176
     0
290
     0
176
     0
290
     0
176
     0
290
     0
176
     0
290
     0
176
     0
 90
       50
176
     0
 40
0.0
176
     0
 40
1.0
176
     0
 90
        0
176
     0
 62
   178
420
        0
176
     0
 90
       50
176
     0
 90
        3
176
     0
 62
     5
420
      255
176
     0
290
     0
176
     0
 90
       50
176
     0
 90
       50
176
     0
 90
       50
176
     0
290
     0
176
     0
 90
       50
176
     0
 62
   256
176
     0
 40
1.0
176
     0
 90
        2
176
     0
  1
strokes_ogs.tif
176
     0
290
     0
176
     0
 40
1.0
176
     0
 40
1.0
176
     0
  0
VISUALSTYLE
  5
162E
102
{ACAD_REACTORS
330
1625
102
}
330
1625
100
AcDbVisualStyle
  2
Realistic
 70
     8
177
     3
291
     0
 70
    58
 90
        2
176
     1
 90
        3
176
     1
 90
        0
176
     1
 90
        2
176
     1
 40
0.6
176
     1
 40
30.0
176
     1
 62
     7
420
 16777215
176
     1
 90
        0
176
     1
 90
        0
176
     1
 62
     7
176
     1
 62
   257
176
     1
 90
        1
176
     1
 90
        1
176
     1
 40
1.0
176
     1
 90
        8
176
     1
 62
   257
176
     1
 40
1.0
176
     1
 90
        1
176
     1
 90
        6
176
     1
 90
        2
176
     1
 62
     7
176
     1
 90
        3
176
     1
 90
        0
176
     1
 90
        0
176
     1
290
     0
176
     1
 90
       13
176
     1
 40
0.0
176
     1
 90
        0
176
     1
290
     0
176
     1
290
     1
176
     1
290
     1
176
     1
290
     0
176
     1
290
     0
176
     1
290
     0
176
     1
290
     0
176
     1
290
     0
176
     1
290
     0
176
     1
 90
       50
176
     1
 40
0.0
176
     1
 40
1.0
176
     1
 90
        0
176
     1
 62
   178
420
        0
176
     1
 90
       50
176
     1
 90
        3
176
     1
 62
     5
420
      255
176
     1
290
     0
176
     1
 90
       50
176
     1
 90
       50
176
     1
 90
       50
176
     1
290
     0
176
     1
 90
       50
176
     1
 62
   256
176
     0
 40
1.0
176
     0
 90
        2
176
     1
  1
strokes_ogs.tif
176
     1
290
     0
176
     1
 40
1.0
176
     1
 40
1.0
176
     1
  0
VISUALSTYLE
  5
163D
102
{ACAD_REACTORS
330
1625
102
}
330
1625
100
AcDbVisualStyle
  2
Shaded
 70
    27
177
     3
291
     0
 70
    58
 90
        2
176
     1
 90
        2
176
     1
 90
        1
176
     1
 90
        2
176
     1
 40
0.6
176
     1
 40
30.0
176
     1
 62
     7
420
 16777215
176
     1
 90
        0
176
     1
 90
        4
176
     1
 62
     7
176
     1
 62
   257
176
     1
 90
        1
176
     1
 90
        1
176
     1
 40
1.0
176
     1
 90
        8
176
     1
 62
   257
176
     1
 40
1.0
176
     1
 90
        1
176
     1
 90
        6
176
     1
 90
        2
176
     1
 62
     8
420
  7895160
176
     1
 90
        3
176
     1
 90
        0
176
     1
 90
        0
176
     1
290
     0
176
     1
 90
        5
176
     1
 40
0.0
176
     1
 90
        0
176
     1
290
     0
176
     1
290
     1
176
     1
290
     1
176
     1
290
     0
176
     1
290
     0
176
     1
290
     0
176
     1
290
     0
176
     1
290
     0
176
     1
290
     0
176
     1
 90
       50
176
     1
 40
0.0
176
     1
 40
1.0
176
     1
 90
        0
176
     1
 62
   178
420
        0
176
     1
 90
       50
176
     1
 90
        3
176
     1
 62
     5
420
      255
176
     1
290
     0
176
     1
 90
       50
176
     1
 90
       50
176
     1
 90
       50
176
     1
290
     0
176
     1
 90
       50
176
     1
 62
   256
176
     0
 40
1.0
176
     0
 90
        2
176
     1
  1
strokes_ogs.tif
176
     1
290
     0
176
     1
 40
1.0
176
     1
 40
1.0
176
     1
  0
VISUALSTYLE
  5
163C
102
{ACAD_REACTORS
330
1625
102
}
330
1625
100
AcDbVisualStyle
  2
Shaded with edges
 70
    26
177
     3
291
     0
 70
    58
 90
        2
176
     1
 90
        2
176
     1
 90
        1
176
     1
 90
        2
176
     1
 40
0.6
176
     1
 40
30.0
176
     1
 62
     7
420
 16777215
176
     1
 90
        1
176
     1
 90
       10
176
     1
 62
     7
176
     1
 62
   257
176
     1
 90
        2
176
     1
 90
        1
176
     1
 40
1.0
176
     1
 90
        8
176
     1
 62
   257
176
     1
 40
1.0
176
     1
 90
        1
176
     1
 90
        6
176
     1
 90
        2
176
     1
 62
     7
176
     1
 90
        3
176
     1
 90
        0
176
     1
 90
        0
176
     1
290
     0
176
     1
 90
        5
176
     1
 40
0.0
176
     1
 90
        0
176
     1
290
     0
176
     1
290
     1
176
     1
290
     1
176
     1
290
     0
176
     1
290
     0
176
     1
290
     0
176
     1
290
     0
176
     1
290
     0
176
     1
290
     0
176
     1
 90
       50
176
     1
 40
0.0
176
     1
 40
1.0
176
     1
 90
        0
176
     1
 62
   178
420
        0
176
     1
 90
       50
176
     1
 90
        3
176
     1
 62
     5
420
      255
176
     1
290
     0
176
     1
 90
       50
176
     1
 90
       50
176
     1
 90
       50
176
     1
290
     0
176
     1
 90
       50
176
     1
 62
   256
176
     0
 40
1.0
176
     0
 90
        2
176
     1
  1
strokes_ogs.tif
176
     1
290
     0
176
     1
 40
1.0
176
     1
 40
1.0
176
     1
  0
VISUALSTYLE
  5
1639
102
{ACAD_REACTORS
330
1625
102
}
330
1625
100
AcDbVisualStyle
  2
Shades of Gray
 70
    23
177
     3
291
     0
 70
    58
 90
        2
176
     1
 90
        2
176
     1
 90
        3
176
     1
 90
        0
176
     1
 40
0.6
176
     1
 40
30.0
176
     1
 62
     7
420
 16777215
176
     1
 90
        2
176
     1
 90
        2
176
     1
 62
     7
176
     1
 62
     7
176
     1
 90
        1
176
     1
 90
        1
176
     1
 40
40.0
176
     1
 90
        8
176
     1
 62
     7
176
     1
 40
1.0
176
     1
 90
        1
176
     1
 90
        6
176
     1
 90
        2
176
     1
 62
     7
176
     1
 90
        3
176
     1
 90
        0
176
     1
 90
        0
176
     1
290
     0
176
     1
 90
        1
176
     1
 40
0.0
176
     1
 90
        0
176
     1
290
     0
176
     1
290
     1
176
     1
290
     1
176
     1
290
     0
176
     1
290
     0
176
     1
290
     0
176
     1
290
     0
176
     1
290
     0
176
     1
290
     0
176
     1
 90
       50
176
     1
 40
0.0
176
     1
 40
1.0
176
     1
 90
        0
176
     1
 62
   178
420
        0
176
     1
 90
       50
176
     1
 90
        3
176
     1
 62
     5
420
      255
176
     1
290
     0
176
     1
 90
       50
176
     1
 90
       50
176
     1
 90
       50
176
     1
290
     0
176
     1
 90
       50
176
     1
 62
   256
176
     0
 40
1.0
176
     0
 90
        2
176
     1
  1
strokes_ogs.tif
176
     1
290
     0
176
     1
 40
1.0
176
     1
 40
1.0
176
     1
  0
VISUALSTYLE
  5
163A
102
{ACAD_REACTORS
330
1625
102
}
330
1625
100
AcDbVisualStyle
  2
Sketchy
 70
    24
177
     3
291
     0
 70
    58
 90
        1
176
     1
 90
        2
176
     1
 90
        2
176
     1
 90
        0
176
     1
 40
0.6
176
     1
 40
30.0
176
     1
 62
     7
420
 16777215
176
     1
 90
        2
176
     1
 90
        2
176
     1
 62
     7
176
     1
 62
     7
176
     1
 90
        1
176
     1
 90
        1
176
     1
 40
40.0
176
     1
 90
       11
176
     1
 62
     7
176
     1
 40
1.0
176
     1
 90
        1
176
     1
 90
        6
176
     1
 90
        2
176
     1
 62
     7
176
     1
 90
        6
176
     1
 90
        0
176
     1
 90
        0
176
     1
290
     0
176
     1
 90
        1
176
     1
 40
0.0
176
     1
 90
        0
176
     1
290
     0
176
     1
290
     1
176
     1
290
     1
176
     1
290
     0
176
     1
290
     0
176
     1
290
     0
176
     1
290
     0
176
     1
290
     0
176
     1
290
     0
176
     1
 90
       50
176
     1
 40
0.0
176
     1
 40
1.0
176
     1
 90
        0
176
     1
 62
   178
420
        0
176
     1
 90
       50
176
     1
 90
        3
176
     1
 62
     5
420
      255
176
     1
290
     0
176
     1
 90
       50
176
     1
 90
       50
176
     1
 90
       50
176
     1
290
     0
176
     1
 90
       50
176
     1
 62
   256
176
     0
 40
1.0
176
     0
 90
        2
176
     1
  1
strokes_ogs.tif
176
     1
290
     0
176
     1
 40
1.0
176
     1
 40
1.0
176
     1
  0
VISUALSTYLE
  5
1632
102
{ACAD_REACTORS
330
1625
102
}
330
1625
100
AcDbVisualStyle
  2
Thicken
 70
    13
177
     3
291
     1
 70
    58
 90
        2
176
     1
 90
        2
176
     1
 90
        0
176
     1
 90
        0
176
     1
 40
0.6
176
     1
 40
30.0
176
     1
 62
     7
420
 16777215
176
     1
 90
        1
176
     1
 90
        4
176
     1
 62
     7
176
     1
 62
   257
176
     1
 90
        1
176
     1
 90
        1
176
     1
 40
1.0
176
     1
 90
       12
176
     1
 62
     7
176
     1
 40
1.0
176
     1
 90
        1
176
     1
 90
        6
176
     1
 90
        2
176
     1
 62
     7
176
     1
 90
        5
176
     1
 90
        0
176
     1
 90
        0
176
     1
290
     0
176
     1
 90
        1
176
     1
 40
0.0
176
     1
 90
        0
176
     1
290
     0
176
     1
290
     1
176
     1
290
     1
176
     1
290
     0
176
     1
290
     0
176
     1
290
     0
176
     1
290
     0
176
     1
290
     0
176
     1
290
     0
176
     1
 90
       50
176
     1
 40
0.0
176
     1
 40
1.0
176
     1
 90
        0
176
     1
 62
   178
420
        0
176
     1
 90
       50
176
     1
 90
        3
176
     1
 62
     5
420
      255
176
     1
290
     0
176
     1
 90
       50
176
     1
 90
       50
176
     1
 90
       50
176
     1
290
     0
176
     1
 90
       50
176
     1
 62
   256
176
     0
 40
1.0
176
     0
 90
        2
176
     1
  1
strokes_ogs.tif
176
     1
290
     0
176
     1
 40
1.0
176
     1
 40
1.0
176
     1
  0
VISUALSTYLE
  5
162B
102
{ACAD_REACTORS
330
1625
102
}
330
1625
100
AcDbVisualStyle
  2
Wireframe
 70
     5
177
     3
291
     0
 70
    58
 90
        0
176
     1
 90
        2
176
     1
 90
        0
176
     1
 90
        0
176
     1
 40
0.6
176
     1
 40
30.0
176
     1
 62
     7
420
 16777215
176
     1
 90
        1
176
     1
 90
        4
176
     1
 62
     7
176
     1
 62
   257
176
     1
 90
        1
176
     1
 90
        1
176
     1
 40
1.0
176
     1
 90
        0
176
     1
 62
   257
176
     1
 40
1.0
176
     1
 90
        1
176
     1
 90
        6
176
     1
 90
        2
176
     1
 62
     7
176
     1
 90
        3
176
     1
 90
        0
176
     1
 90
        0
176
     1
290
     0
176
     1
 90
        1
176
     1
 40
0.0
176
     1
 90
        0
176
     1
290
     0
176
     1
290
     1
176
     1
290
     1
176
     1
290
     0
176
     1
290
     0
176
     1
290
     0
176
     1
290
     0
176
     1
290
     0
176
     1
290
     0
176
     1
 90
       50
176
     1
 40
0.0
176
     1
 40
1.0
176
     1
 90
        0
176
     1
 62
   178
420
        0
176
     1
 90
       50
176
     1
 90
        3
176
     1
 62
     5
420
      255
176
     1
290
     0
176
     1
 90
       50
176
     1
 90
       50
176
     1
 90
       50
176
     1
290
     0
176
     1
 90
       50
176
     1
 62
   256
176
     0
 40
1.0
176
     0
 90
        2
176
     1
  1
strokes_ogs.tif
176
     1
290
     0
176
     1
 40
1.0
176
     1
 40
1.0
176
     1
  0
VISUALSTYLE
  5
163B
102
{ACAD_REACTORS
330
1625
102
}
330
1625
100
AcDbVisualStyle
  2
X-Ray
 70
    25
177
     3
291
     0
 70
    58
 90
        2
176
     1
 90
        2
176
     1
 90
        1
176
     1
 90
        1
176
     1
 40
0.5
176
     1
 40
30.0
176
     1
 62
     7
420
 16777215
176
     1
 90
        1
176
     1
 90
        0
176
     1
 62
     7
176
     1
 62
   257
176
     1
 90
        1
176
     1
 90
        1
176
     1
 40
1.0
176
     1
 90
        8
176
     1
 62
     7
176
     1
 40
1.0
176
     1
 90
        1
176
     1
 90
        6
176
     1
 90
        2
176
     1
 62
     7
176
     1
 90
        3
176
     1
 90
        0
176
     1
 90
        0
176
     1
290
     0
176
     1
 90
       13
176
     1
 40
0.0
176
     1
 90
        0
176
     1
290
     0
176
     1
290
     1
176
     1
290
     1
176
     1
290
     0
176
     1
290
     0
176
     1
290
     0
176
     1
290
     0
176
     1
290
     0
176
     1
290
     0
176
     1
 90
       50
176
     1
 40
0.0
176
     1
 40
1.0
176
     1
 90
        0
176
     1
 62
   178
420
        0
176
     1
 90
       50
176
     1
 90
        3
176
     1
 62
     5
420
      255
176
     1
290
     0
176
     1
 90
       50
176
     1
 90
       50
176
     1
 90
       50
176
     1
290
     0
176
     1
 90
       50
176
     1
 62
   256
176
     0
 40
1.0
176
     0
 90
        2
176
     1
  1
strokes_ogs.tif
176
     1
290
     0
176
     1
 40
1.0
176
     1
 40
1.0
176
     1
  0
DICTIONARYVAR
  5
16FB
102
{ACAD_REACTORS
330
16FA
102
}
330
16FA
100
DictionaryVariables
280
     0
  1
1:1
  0
DICTIONARYVAR
  5
1700
102
{ACAD_REACTORS
330
16FA
102
}
330
16FA
100
DictionaryVariables
280
     0
  1
Standard
  0
DICTIONARYVAR
  5
16FF
102
{ACAD_REACTORS
330
16FA
102
}
330
16FA
100
DictionaryVariables
280
     0
  1
Standard
  0
XRECORD
  5
166C
102
{ACAD_REACTORS
330
166A
102
}
330
166A
100
AcDbXrecord
280
     1
1000
GCodeMM
  0
XRECORD
  5
166D
102
{ACAD_REACTORS
330
166A
102
}
330
166A
100
AcDbXrecord
280
     1
1000
#ffffff
  0
XRECORD
  5
166E
102
{ACAD_REACTORS
330
166A
102
}
330
166A
100
AcDbXrecord
280
     1
1000
FullColor
  0
XRECORD
  5
166F
102
{ACAD_REACTORS
330
166A
102
}
330
166A
100
AcDbXrecord
280
     1
290
     1
  0
XRECORD
  5
1670
102
{ACAD_REACTORS
330
166A
102
}
330
166A
100
AcDbXrecord
280
     1
290
     1
  0
XRECORD
  5
1671
102
{ACAD_REACTORS
330
166A
102
}
330
166A
100
AcDbXrecord
280
     1
290
     1
  0
XRECORD
  5
1672
102
{ACAD_REACTORS
330
166A
102
}
330
166A
100
AcDbXrecord
280
     1
290
     1
  0
XRECORD
  5
1673
102
{ACAD_REACTORS
330
166A
102
}
330
166A
100
AcDbXrecord
280
     1
1000
auto
  0
XRECORD
  5
1674
102
{ACAD_REACTORS
330
166A
102
}
330
166A
100
AcDbXrecord
280
     1
1000
auto
  0
XRECORD
  5
1675
102
{ACAD_REACTORS
330
166A
102
}
330
166A
100
AcDbXrecord
280
     1
1000
auto
  0
XRECORD
  5
1676
102
{ACAD_REACTORS
330
166A
102
}
330
166A
100
AcDbXrecord
280
     1
1000
auto
  0
XRECORD
  5
1677
102
{ACAD_REACTORS
330
166A
102
}
330
166A
100
AcDbXrecord
280
     1
1000
auto
  0
XRECORD
  5
1678
102
{ACAD_REACTORS
330
166A
102
}
330
166A
100
AcDbXrecord
280
     1
1000
auto
  0
XRECORD
  5
1679
102
{ACAD_REACTORS
330
166A
102
}
330
166A
100
AcDbXrecord
280
     1
1000
auto
  0
XRECORD
  5
167A
102
{ACAD_REACTORS
330
166A
102
}
330
166A
100
AcDbXrecord
280
     1
1000
auto
  0
XRECORD
  5
167B
102
{ACAD_REACTORS
330
166A
102
}
330
166A
100
AcDbXrecord
280
     1
290
     0
  0
XRECORD
  5
167C
102
{ACAD_REACTORS
330
166A
102
}
330
166A
100
AcDbXrecord
280
     1
290
     0
  0
XRECORD
  5
167D
102
{ACAD_REACTORS
330
166A
102
}
330
166A
100
AcDbXrecord
280
     1
290
     0
  0
XRECORD
  5
167E
102
{ACAD_REACTORS
330
166A
102
}
330
166A
100
AcDbXrecord
280
     1
290
     0
  0
XRECORD
  5
167F
102
{ACAD_REACTORS
330
166A
102
}
330
166A
100
AcDbXrecord
280
     1
 90
    65537
  0
XRECORD
  5
1680
102
{ACAD_REACTORS
330
166A
102
}
330
166A
100
AcDbXrecord
280
     1
 90
    65537
  0
XRECORD
  5
1681
102
{ACAD_REACTORS
330
166A
102
}
330
166A
100
AcDbXrecord
280
     1
 90
    65537
  0
XRECORD
  5
1682
102
{ACAD_REACTORS
330
166A
102
}
330
166A
100
AcDbXrecord
280
     1
 90
    65537
  0
XRECORD
  5
1683
102
{ACAD_REACTORS
330
166A
102
}
330
166A
100
AcDbXrecord
280
     1
1000
auto
  0
XRECORD
  5
1684
102
{ACAD_REACTORS
330
166A
102
}
330
166A
100
AcDbXrecord
280
     1
1000
auto
  0
XRECORD
  5
1685
102
{ACAD_REACTORS
330
166A
102
}
330
166A
100
AcDbXrecord
280
     1
1000
auto
  0
XRECORD
  5
1686
102
{ACAD_REACTORS
330
166A
102
}
330
166A
100
AcDbXrecord
280
     1
1000
auto
  0
XRECORD
  5
1687
102
{ACAD_REACTORS
330
166A
102
}
330
166A
100
AcDbXrecord
280
     1
1000
auto
  0
XRECORD
  5
1688
102
{ACAD_REACTORS
330
166A
102
}
330
166A
100
AcDbXrecord
280
     1
1000
auto
  0
XRECORD
  5
1689
102
{ACAD_REACTORS
330
166A
102
}
330
166A
100
AcDbXrecord
280
     1
1000
auto
  0
XRECORD
  5
168A
102
{ACAD_REACTORS
330
166A
102
}
330
166A
100
AcDbXrecord
280
     1
1000
auto
  0
XRECORD
  5
168B
102
{ACAD_REACTORS
330
166A
102
}
330
166A
100
AcDbXrecord
280
     1
 90
        1
  0
XRECORD
  5
168C
102
{ACAD_REACTORS
330
166A
102
}
330
166A
100
AcDbXrecord
280
     1
 40
10.0
  0
XRECORD
  5
168D
102
{ACAD_REACTORS
330
166A
102
}
330
166A
100
AcDbXrecord
280
     1
 40
10.0
  0
XRECORD
  5
168E
102
{ACAD_REACTORS
330
166A
102
}
330
166A
100
AcDbXrecord
280
     1
 40
10.0
  0
XRECORD
  5
168F
102
{ACAD_REACTORS
330
166A
102
}
330
166A
100
AcDbXrecord
280
     1
 40
10.0
  0
XRECORD
  5
1690
102
{ACAD_REACTORS
330
166A
102
}
330
166A
100
AcDbXrecord
280
     1
290
     0
  0
XRECORD
  5
1691
102
{ACAD_REACTORS
330
166A
102
}
330
166A
100
AcDbXrecord
280
     1
 90
        1
  0
XRECORD
  5
1692
102
{ACAD_REACTORS
330
166A
102
}
330
166A
100
AcDbXrecord
280
     1
 40
0.0
  0
XRECORD
  5
1693
102
{ACAD_REACTORS
330
166A
102
}
330
166A
100
AcDbXrecord
280
     1
 40
0.0
  0
XRECORD
  5
1694
102
{ACAD_REACTORS
330
166A
102
}
330
166A
100
AcDbXrecord
280
     1
1000
Portrait
  0
XRECORD
  5
1695
102
{ACAD_REACTORS
330
166A
102
}
330
166A
100
AcDbXrecord
280
     1
 40
297.0
  0
XRECORD
  5
1696
102
{ACAD_REACTORS
330
166A
102
}
330
166A
100
AcDbXrecord
280
     1
 40
210.0
  0
XRECORD
  5
1697
102
{ACAD_REACTORS
330
166A
102
}
330
166A
100
AcDbXrecord
280
     1
1000
1:1
  0
XRECORD
  5
1698
102
{ACAD_REACTORS
330
166A
102
}
330
166A
100
AcDbXrecord
280
     1
290
     1
  0
XRECORD
  5
1699
102
{ACAD_REACTORS
330
166A
102
}
330
166A
100
AcDbXrecord
280
     1
290
     0
  0
XRECORD
  5
169A
102
{ACAD_REACTORS
330
166A
102
}
330
166A
100
AcDbXrecord
280
     1
1000
Inside
  0
XRECORD
  5
169B
102
{ACAD_REACTORS
330
166A
102
}
330
166A
100
AcDbXrecord
280
     1
1000
Arial,10,-1,5,50,0,0,0,0,0
  0
XRECORD
  5
169C
102
{ACAD_REACTORS
330
166A
102
}
330
166A
100
AcDbXrecord
280
     1
1000
TopLeft
  0
XRECORD
  5
169D
102
{ACAD_REACTORS
330
166A
102
}
330
166A
100
AcDbXrecord
280
     1
1000
3.26.4
  0
XRECORD
  5
169E
102
{ACAD_REACTORS
330
166A
102
}
330
166A
100
AcDbXrecord
280
     1
 90
        4
  0
XRECORD
  5
169F
102
{ACAD_REACTORS
330
166A
102
}
330
166A
100
AcDbXrecord
280
     1
  0
XRECORD
  5
16A0
102
{ACAD_REACTORS
330
166A
102
}
330
166A
100
AcDbXrecord
280
     1
 40
1816.666997108909
  0
XRECORD
  5
16A1
102
{ACAD_REACTORS
330
166A
102
}
330
166A
100
AcDbXrecord
280
     1
 40
3973.464680178703
  0
DICTIONARY
  5
16FC
330
1665
100
AcDbDictionary
280
     1
281
     1
  3
ACAD_ROUNDTRIP_2008_TABLESTYLE_CELLSTYLEMAP
360
16FD
  0
CELLSTYLEMAP
  5
16FD
102
{ACAD_REACTORS
330
16FC
102
}
330
16FC
100
AcDbCellStyleMap
 90
        3
300
CELLSTYLE
  1
TABLEFORMAT_BEGIN
 90
        5
170
     1
 91
        0
 92
    32768
 62
   257
 93
        1
300
CONTENTFORMAT
  1
CONTENTFORMAT_BEGIN
 90
        0
 91
        0
 92
        4
 93
        0
300

 40
0.0
140
1.0
 94
        5
 62
     0
340
160D
144
0.25
309
CONTENTFORMAT_END
171
     1
301
MARGIN
  1
CELLMARGIN_BEGIN
 40
0.06
 40
0.06
 40
0.06
 40
0.06
 40
0.06
 40
0.06
309
CELLMARGIN_END
 94
        6
 95
        1
302
GRIDFORMAT
  1
GRIDFORMAT_BEGIN
 90
        0
 91
        1
 62
     0
 92
       -2
340
160F
 93
        0
 40
0.045
309
GRIDFORMAT_END
 95
        2
302
GRIDFORMAT
  1
GRIDFORMAT_BEGIN
 90
        0
 91
        1
 62
     0
 92
       -2
340
160F
 93
        0
 40
0.045
309
GRIDFORMAT_END
 95
        4
302
GRIDFORMAT
  1
GRIDFORMAT_BEGIN
 90
        0
 91
        1
 62
     0
 92
       -2
340
160F
 93
        0
 40
0.045
309
GRIDFORMAT_END
 95
        8
302
GRIDFORMAT
  1
GRIDFORMAT_BEGIN
 90
        0
 91
        1
 62
     0
 92
       -2
340
160F
 93
        0
 40
0.045
309
GRIDFORMAT_END
 95
       16
302
GRIDFORMAT
  1
GRIDFORMAT_BEGIN
 90
        0
 91
        1
 62
     0
 92
       -2
340
160F
 93
        0
 40
0.045
309
GRIDFORMAT_END
 95
       32
302
GRIDFORMAT
  1
GRIDFORMAT_BEGIN
 90
        0
 91
        1
 62
     0
 92
       -2
340
160F
 93
        0
 40
0.045
309
GRIDFORMAT_END
309
TABLEFORMAT_END
  1
CELLSTYLE_BEGIN
 90
        1
 91
        1
300
_TITLE
309
CELLSTYLE_END
300
CELLSTYLE
  1
TABLEFORMAT_BEGIN
 90
        5
170
     1
 91
        0
 92
        0
 62
   257
 93
        1
300
CONTENTFORMAT
  1
CONTENTFORMAT_BEGIN
 90
        0
 91
        0
 92
        4
 93
        0
300

 40
0.0
140
1.0
 94
        5
 62
     0
340
160D
144
0.18
309
CONTENTFORMAT_END
171
     1
301
MARGIN
  1
CELLMARGIN_BEGIN
 40
0.06
 40
0.06
 40
0.06
 40
0.06
 40
0.06
 40
0.06
309
CELLMARGIN_END
 94
        6
 95
        1
302
GRIDFORMAT
  1
GRIDFORMAT_BEGIN
 90
        0
 91
        1
 62
     0
 92
       -2
340
160F
 93
        0
 40
0.045
309
GRIDFORMAT_END
 95
        2
302
GRIDFORMAT
  1
GRIDFORMAT_BEGIN
 90
        0
 91
        1
 62
     0
 92
       -2
340
160F
 93
        0
 40
0.045
309
GRIDFORMAT_END
 95
        4
302
GRIDFORMAT
  1
GRIDFORMAT_BEGIN
 90
        0
 91
        1
 62
     0
 92
       -2
340
160F
 93
        0
 40
0.045
309
GRIDFORMAT_END
 95
        8
302
GRIDFORMAT
  1
GRIDFORMAT_BEGIN
 90
        0
 91
        1
 62
     0
 92
       -2
340
160F
 93
        0
 40
0.045
309
GRIDFORMAT_END
 95
       16
302
GRIDFORMAT
  1
GRIDFORMAT_BEGIN
 90
        0
 91
        1
 62
     0
 92
       -2
340
160F
 93
        0
 40
0.045
309
GRIDFORMAT_END
 95
       32
302
GRIDFORMAT
  1
GRIDFORMAT_BEGIN
 90
        0
 91
        1
 62
     0
 92
       -2
340
160F
 93
        0
 40
0.045
309
GRIDFORMAT_END
309
TABLEFORMAT_END
  1
CELLSTYLE_BEGIN
 90
        2
 91
        1
300
_HEADER
309
CELLSTYLE_END
300
CELLSTYLE
  1
TABLEFORMAT_BEGIN
 90
        5
170
     1
 91
        0
 92
        0
 62
   257
 93
        1
300
CONTENTFORMAT
  1
CONTENTFORMAT_BEGIN
 90
        0
 91
        0
 92
        4
 93
        0
300

 40
0.0
140
1.0
 94
        2
 62
     0
340
160D
144
0.18
309
CONTENTFORMAT_END
171
     1
301
MARGIN
  1
CELLMARGIN_BEGIN
 40
0.06
 40
0.06
 40
0.06
 40
0.06
 40
0.06
 40
0.06
309
CELLMARGIN_END
 94
        6
 95
        1
302
GRIDFORMAT
  1
GRIDFORMAT_BEGIN
 90
        0
 91
        1
 62
     0
 92
       -2
340
160F
 93
        0
 40
0.045
309
GRIDFORMAT_END
 95
        2
302
GRIDFORMAT
  1
GRIDFORMAT_BEGIN
 90
        0
 91
        1
 62
     0
 92
       -2
340
160F
 93
        0
 40
0.045
309
GRIDFORMAT_END
 95
        4
302
GRIDFORMAT
  1
GRIDFORMAT_BEGIN
 90
        0
 91
        1
 62
     0
 92
       -2
340
160F
 93
        0
 40
0.045
309
GRIDFORMAT_END
 95
        8
302
GRIDFORMAT
  1
GRIDFORMAT_BEGIN
 90
        0
 91
        1
 62
     0
 92
       -2
340
160F
 93
        0
 40
0.045
309
GRIDFORMAT_END
 95
       16
302
GRIDFORMAT
  1
GRIDFORMAT_BEGIN
 90
        0
 91
        1
 62
     0
 92
       -2
340
160F
 93
        0
 40
0.045
309
GRIDFORMAT_END
 95
       32
302
GRIDFORMAT
  1
GRIDFORMAT_BEGIN
 90
        0
 91
        1
 62
     0
 92
       -2
340
160F
 93
        0
 40
0.045
309
GRIDFORMAT_END
309
TABLEFORMAT_END
  1
CELLSTYLE_BEGIN
 90
        3
 91
        2
300
_DATA
309
CELLSTYLE_END
  0
ENDSEC
  0
EOF
